Greeley Estates - Tear My World Apart Text Guitar Tab

Learn song with the online tabulature player
I could only get the lead for this one
Drop D
Intro/ Verse
e--------------|
b--------------|
g----11-----11-| Xalot
d-999--99999---|
a--------------|
D--------------|

Chorus
e-----------------------------------------------------------------------------|
b-----------------------------------------------------------------------------|
g------------11-12-------------14-12-11-----11-12-11---12-11-12-14-12-11------|
d-55555-55555-x--x-55555-55555--x--x--x-0-0---------0-0-----------------14-12-|
a-55555-55555-9-10-55555-55555-12-10--9-0-0---------0-0-----------------------|
D-55555-55555------55555-55555----------0-0---------0-0-----------------------|

Bridge(really quiet after piano starts)
e----------------------|
b---------12-----------|
g----11-12----11-12-14-|
d--12-------12---------| about 10 times
a----------------------|
D----------------------|

thats about all for the whole song
IM ffafrox or email ffafrox@aol.com for comments