Greeley Estates - The End Of All We Know Text Guitar Tab

Learn song with the online tabulature player
Greeley Estates: The End Of All We Know
Album: Far From the Lies
Tuning: CGCFAD

Sorry i couldn't figure out the whole song...but here's the intro and the breakdown.
If you have earphones, use the right one for guitar 1 and the left one for guitar 2.

x = Mute
~ = Let it ring
                                     _______
                                    |*Intro*|

Guitar 1 (0:00)
D|-------------------------------------|
A|-------------------------------------|
F|-----1010101010------1010------9999--|
C|--x--x-x-x-x-x---xx--x-x---xx--xxxx--|x3
G|--x--8-8-8-8-8---xx--8-8---xx--7777--|
C|--x--------------xx--------xx--------|
(4th time, play this)
D|-------------------------------------|
A|-------------------------------------|
F|-----1010101010------55--------7777--|
C|--x--x-x-x-x-x---xx--xx--xx----xxxx--|
G|--x--8-8-8-8-8---xx--33--xx----5555--|
C|--x--------------xx------xx----------|

Guitar 2 (0:00)
D|-------------------------------------|
A|-------------------------------------|
F|-------------------------------------|
C|--x--------------xx--------xx--------|x4
G|--x--------------xx--------xx--------|
C|--x--------------xx--------xx--------|

                                     ___________
                                    |*Breakdown*|


Guitar 1 (2:00)
D|-------------------------------------|
A|-------------------------------------|
F|-----1010101010------1010------9999--|
C|--x--x-x-x-x-x---xx--x-x---xx--xxxx--|x3
G|--x--8-8-8-8-8---xx--8-8---xx--7777--|
C|--x--------------xx--------xx--------|
(4th time, play this)
D|-------------------------------------|
A|-------------------------------------|
F|-----1010101010------55--------7777--|
C|--x--x-x-x-x-x---xx--xx--xx----xxxx--|
G|--x--8-8-8-8-8---xx--33--xx----5555--|
C|--x--------------xx------xx----------|

Guitar 2 (2:00)
D|-------------------------------------|
A|-------------------------------------|
F|-------------------------------------|
C|--x--------------xx--------xx--------|x4
G|--x--------------xx--------xx--------|
C|--x--------------xx--------xx--------|



Guitar 1 (2:11)
D|------------------------------------------|
A|------------------------------------------|
F|-----1414141414------1414------12/141414--|______________
C|--x--x-x-x-x-x---xx--x-x---xx--x-/x-x-x---|              |
G|--x--1212121212--xx--1212--xx--10/121212--|              |
C|--x--------------xx--------xx-------------|              |
                                                           |
D|------------------------------------------|              |
A|------------------------------------------|              |
F|-----1414141414------1414------12/101010--|              |
C|--x--x-x-x-x-x---xx--x-x---xx--x-/x-x-x---|              |
G|--x--1212121212--xx--1212--xx--10/8-8-8---|              |
C|--x--------------xx--------xx-------------|              |
                                                           |x2
D|------------------------------------------|              |
A|------------------------------------------|              |
F|-----1414141414------1414------12/141414--|              |
C|--x--x-x-x-x-x---xx--x-x---xx--x-/x-x-x---|              |
G|--x--1212121212--xx--1212--xx--10/121212--|              |
C|--x--------------xx--------xx-------------|              |
                                                           |
D|---------------------------------------|                 |
A|---------------------------------------|                 |
F|-----1414141414------99------10101010--|                 |
C|--x--x-x-x-x-x---xx--xx--xx--x-x-x-x---|_________________|
G|--x--1212121212--xx--77--xx--8-8-8-8---|
C|--x--------------xx------xx------------|

Guitar 2 (2:11)
D|-------------------------------------|
A|-------------------------------------|
F|-----1010101010------1010------9999--|____________________
C|--x--x-x-x-x-x---xx--x-x---xx--xxxx--|x3                  |
G|--x--8-8-8-8-8---xx--8-8---xx--7777--|                    |
C|--x--------------xx--------xx--------|                    |
(4th time, play this)                                       |x2
D|-------------------------------------|                    |
A|-------------------------------------|                    |
F|-----1010101010------55--------7777--|                    |
C|--x--x-x-x-x-x---xx--xx--xx----xxxx--|____________________|
G|--x--8-8-8-8-8---xx--33--xx----5555--|
C|--x--------------xx------xx----------|

Leave a comment and tell me what you think.