Green Day - Android Text Guitar Tab

Learn the song with the online tablature player
                                intro x2

                                verse x2

                               prechorus x4

                                 intro x2

                bridge                                 x2
               ---------------------------------------------|
               ---------------------------------------------|
               ---------------------------------------------|
               --9-9-----7-7-----6-6-----4-4----------------|
               --9-9-x10-7-7-x10-6-6-x10-4-4-x10------------|
               --7-7-----5-5-----4-4-----2-2----------------|
                   .       .       .       .

intro x4

pre interlude let b chord ring

just keep playin this riff repeatedly
 --0~-----------------------------------------|
 ----0~---------------------------------------|
 ---------------------------------------------|
 ---------------------------------------------|
 ---------------------------------------------|
 ---------------------------------------------|

after the above riff the bridge is played twice all palm muted.

  pre outro (play the intro 4 times)

outro
 -----------------------------------------------|
 -----------------------------------------------|
 -4---------------------------------------------|
 -4---------------------------------------------|
 -2---------------------------------------------|
 -----------------------------------------------|

symbols
x= scratch
.= palm mute
~= let notes ring