Green Day - Dookie Text Guitar Tab

Learn the song with the online tablature player
1.Burnout
2.Having A Blast
3.Chump
4.Longview
5.Welcome To Paradise
6.Pulling Teeth
7.Basket Case
8.She
9.Sassafras Roots
10.When I Come Around
11.Coming Clean
12.Emenius Sleepus
13.In The End
14.F.O.D.
Hidden track all by myself

Verse
E|------------------------------------------------------------------------------|
B|------------------------------------------------------------------------------|
G|---------5-5-5-5-5-----------5-5--------------------------7-7-7-7-7-7-7-7-7-7-|
D|-5-5-5-5-5-5-5-5-5--5-5-5-5--5-5-3-3--5-5-5-5--3-3-3-3-3--7-7-7-7-7-7-7-7-7-7-|
A|-5-5-5-5-3-3-3-3-3--5-5-5-5--3-3-3-3--5-5-5-5--3-3-3-3-3--5-5-5-5-5-5-5-5-5-5-|
E|-3-3-3-3------------3-3-3-3------1-1--3-3-3-3--1-1-1-1-1----------------------|

Chorus
E|------------------------------------------------------------------------------------|
B|------------------------------------------------------------------------------------|
G|-5-5-5-5-------------5-5-----------------5-5-5-5-5-5-------------7-7-7-7-7-7-7-7-7-7|
D|-5-5-5-5-5-5-5-5-5-5-5-5-3-3-5-5-5-5-5-5-5-5-5-5-5-5-3-3-3-3-3-3-7-7-7-7-7-7-7-7-7-7|
A|-3-3-3-3-5-5-5-5-5-5-3-3-3-3-5-5-5-5-5-5-3-3-3-3-3-3-3-3-3-3-3-3-5-5-5-5-5-5-5-5-5-5|
E|---------3-3-3-3-3-3-----1-1-3-3-3-3-3-3-------------1-1-1-1-1-1--------------------|

Fill 1
E|----------------------------------------------------------------------------|
A|----------------------------------------------------------------------------|
D|--7-7-7-7-7-7-7-7-7-7-7-7--7-7-7-7-7-7-7-7-7-7-7-7--7-7-7-7-7-7-7-7-7-7-7-7-|
G|--7-7-7-7-7-7-7-7-7-7-7-7--7-7-7-7-7-7-7-7-7-7-7-7--7-7-7-7-7-7-7-7-7-7-7-7-|
B|--5-5-5-5-5-5-5-5-5-5-5-5--5-5-5-5-5-5-5-5-5-5-5-5--5-5-5-5-5-5-5-5-5-5-5-5-|
E|----------------------------------------------------------------------------|

Bridge
E|-------------|
A|-------------|
D|-------------|
G|-5-5-x-3-3/5-|
B|-5-5-x-3-3/5-|
E|-5-5-x-1-1/3-|

Order

Verse x2
Chorus
Verse x2
Chorus x2
Fill 1
Bridge x4
Chorus x2
Fill 1
Bridge

Lyrics

(Verse 1)
I declare I don't care no more
I'm burning up and out and growing bored
In my smoked out boring room
My hair is shagging in my eyes
Dragging my feet to hit the street tonight
To drive along these shit town lights

(Chorus)
I'm not growing up
I'm just burning out
And I've stepped in line
To walk amongst the dead

(Verse 2)
Apathy has rained on me
And now I'm feeling like a soggy dream
So close to drowning but I don't mind
I've lived inside this mental cave
Throw my emotions in the grave
Hell, who needs them anyway?

(Chorus x2)
I'm not growing up
I'm just burning out
And I've stepped in line
To walk amongst the dead

I'm not growing up
I'm just burning out
And I've stepped in line
To walk amongst the dead........dead

(Bridge)

(Chorus x2)
I'm not growing up
I'm just burning out
And I've stepped in line
To walk amongst the dead

I'm not growing up
I'm just burning out
And I've stepped in line
To walk amongst the dead........dead

(Bridge)

Intro
E|-------------------------------|-------------------------------|
B|-----------0-------------------|-----------0-------------------|
G|-6-6-6-6---0-------------------|-6-6-6-6---0-------------------|
D|-7-7-7-7---0---5-5-5-----------|-7-7-7-7---0---5-5-5-----------|
A|-7-7-7-7---0---5-5-5-------2---|-7-7-7-7---0---5-5-5-------2---|
E|-5-5-5-5---0---3-3-3---3-3---3-|-5-5-5-5---0---3-3-3---3-3---3-|

Verse
E|----------------------------|------------------------|------------------|
B|----------------------------|------------------------|------------------|
G|-2--------------------------|------------------------|----------2-2-2-2-|
D|-2--2-2-2-2-2-2-2-2-2-2-2-2-|-2-2-2-2-2-2-2-2-2-2-2-2|-2-2-2-2--2-2-2-2-|
A|-0--0-0-0-0-0-0-0-0-0-0-0-0-|-0-0-0-0-0-0-0-0-0-0-0-0|-0-0-0-0--0-0-0-0-|
E|----------------------------|------------------------|------------------|

E|---------------------|-----------------|
B|---------------------|-----------------|
G|---------------------|-1-1-1-1-1-1-1-1-|
D|-5-5-5-5-5-5-5-5-5-5-|-2-2-2-2-2-2-2-2-|
A|-5-5-5-5-5-5-5-5-5-5-|-2-2-2-2-2-2-2-2-|
E|-3-3-3-3-3-3-3-3-3-3-|-0-0-0-0-0-0-0-0-|

Chorus
E|--------------------------------------------------------------------------------|
B|--------------------------------------------------------------------------------|
G|-7-7-7-7-7-7-7-7-7-7-7-7-6-6-6-6-6-6-6-6-6-6------------------------------------|
D|-7-7-7-7-7-7-7-7-7-7-7-7-7-7-7-7-7-7-7-7-7-7-9-9-9-9-9-9-9-9-9--5-5-5-5-5-5-5-5-|
A|-5-5-5-5-5-5-5-5-5-5-5-5-7-7-7-7-7-7-7-7-7-7-9-9-9-9-9-9-9-9-9--5-5-5-5-5-5-5-5-|
E|-------------------------5-5-5-5-5-5-5-5-5-5-7-7-7-7-7-7-7-7-7--3-3-3-3-3-3-3-3-|

Interlude
E|--------------------------------------------------------------------------|
B|--------------------------------------------------------------------------|
G|----------------4#----------------------------7-7-------------------------|
D|-7#--4-4-4-4-4--4#--2-2-2-2-2--7#--4-4-4-4-4--7-7--7-7-2------------------|
A|-7#--4-4-4-4-4--2#--2-2-2-2-2--7#--4-4-4-4-4--5-5--7-7-2------------------|
E|-5#--2-2-2-2-2------0-0-0-0-0--5#--2-2-2-2-2-------5-5-0------------------|

Interlude part 2
E|--------------------------------------------------------------------------|
B|--------------------------------------------------------------------------|
G|---------7-7-7-7----------------------------------------------------------|
D|-4-4-4-4-7-7-7-7-7-7-7-7-7-7-7-7-7-7--4-4-4-4--5-5-5-5--7-7-7--5/7--7-7-7-|
A|-4-4-4-4-5-5-5-5-7-7-7-7-7-7-7-7-7-7--4-4-4-4--5-5-5-5--7-7-7--5/7--7-7-7-|
E|-2-2-2-2---------5-5-5-5-5-5-5-5-5-5--2-2-2-2--3-3-3-3--5-5-5--3/5--5-5-5-|

E|--------------------------------------------------------------------------|
B|--------------------------------------------------------------------------|
G|----------7-7-7-7---------------------------------------------------------|
D|-4-4-4-4--7-7-7-7--7-7-7-7-7-7-7-7-7-7--4-4-4-4--5-5-5-5------------------|
A|-4-4-4-4--5-5-5-5--7-7-7-7-7-7-7-7-7-7--4-4-4-4--5-5-5-5------------------|
E|-2-2-2-2-----------5-5-5-5-5-5-5-5-5-5--2-2-2-2--3-3-3-3------------------|

Outro
E|-------------------------------|-------------------------------|
B|-----------0-------------------|-----------0-------------------|
G|-6-6-6-6---0-------------------|-6-6-6-6---0-------------------|
D|-7-7-7-7---0---5-5-5-----------|-7-7-7-7---0---5-5-5-----------|
A|-7-7-7-7---0---5-5-5-------2---|-7-7-7-7---0---5-5-5-------2---|
E|-5-5-5-5---0---3-3-3---3-3---3-|-5-5-5-5---0---3-3-3---3-3---3-|

E|-------------------------------|----------------------|
B|-----------0-------------------|-----------0----------|
G|-6-6-6-6---0-------------------|-6-6-6-6---0----------|
D|-7-7-7-7---0---5-5-5-----------|-7-7-7-7---0---5~~~~--|
A|-7-7-7-7---0---5-5-5-------2---|-7-7-7-7---0---5~~~~--|
E|-5-5-5-5---0---3-3-3---3-3---3-|-5-5-5-5---0---3~~~~--|

Order

Intro x2
Verse x2
Chorus x2
Intro x2
Verse x2
Chorus
Intro
Interlude
Interlude part 2
Outro

(Lyrics)

(Verse 1)
I'm taking
All you down with me
Explosives duct-taped to my spine
Nothing's gonna change my mind
I won't listen
To anyone's last words
There's nothing left for you to say
Soon you'll be dead anyway

(Chorus)
Well no one here
Is getting out alive
This time I've really lost my mind
And I don't care
So close your eyes
And kiss yourself goodbye
And think about the times you spent
And what they've meant
To me it's nothing; to me it's nothing
To me it's nothing; to me it's nothing

(Verse 2)
I'm losing
All my happiness
The happiness you pinned on me
My loneliness still comforts me
My anger
Dwells inside of me
I'm taking it all out on you
And all the shit you put me through

(Chorus)
Well no one here
Is getting out alive
This time I've really lost my mind
And I don't care
So close your eyes
And kiss yourself goodbye
And think about the times you spent
And what they've meant
To me it's nothing, To me it's nothing
To me it's nothing, To me it's nothing

(Interlude)
Do you ever think back?
To another time
Did it bring you so down
That you thought you lost your mind

(Interlude part 2)
Do you ever want to lead?
A long trail of destruction
And mow down any bullshit
That confronts you
Do you ever build up
All the small things in your head
To make one problem
That adds up to nothing

(Outro)
To me it's nothing; to me it's nothing
To me it's nothing; to me it's nothing

Intro
E|-----------------0-0-0-|-----------------0-0-0-|
B|-----------------0-0-0-|-----------------0-0-0-|
G|-4-4-4-x---------1-1-1-|-4-4-4-x---------1-1-1-|
D|-4-4-4-x--6-6-6--2-2-2-|-4-4-4-x--6-6-6--2-2-2-|
A|-2-2-2-x--6-6-6--2-2-2-|-2-2-2-x--6-6-6--2-2-2-|
E|----------4-4-4--0-0-0-|----------4-4-4--0-0-0-|

Verse
E|-----------------0-0-0-|-----------------0-0-0-|-----------------0-0-0-|
B|-----------------0-0-0-|-----------------0-0-0-|-----------------0-0-0-|
G|-4-4-4-x---------1-1-1-|-4-4-4-x---------1-1-1-|-4-4-4-x---------1-1-1-|
D|-4-4-4-x--6-6-6--2-2-2-|-4-4-4-x--6-6-6--2-2-2-|-4-4-4-x--6-6-6--2-2-2-|
A|-2-2-2-x--6-6-6--2-2-2-|-2-2-2-x--6-6-6--2-2-2-|-2-2-2-x--6-6-6--2-2-2-|
E|----------4-4-4--0-0-0-|----------4-4-4--0-0-0-|----------4-4-4--0-0-0-|

E|---------------------|
B|---------------------|
G|---------------------|
D|-4-4-4-4-4-4-4-4-4-4-|
A|-4-4-4-4-4-4-4-4-4-4-|
E|-2-2-2-2-2-2-2-2-2-2-|

Chorus
E|------------------------------------|--------------------------------------|
B|-2-2-2-2-x--------------------------|-2-2-2-2-x-------------------2-2-2-2--|
G|-2-2-2-2-x-1-1-1-1--4-4-4-4-4-4-4-4-|-2-2-2-2-x-1-1-1-1--4-4-4-4--2-2-2-2--|
D|-2-2-2-2-x-2-2-2-2--4-4-4-4-4-4-4-4-|-2-2-2-2-x-2-2-2-2--4-4-4-4--2-2-2-2--|
A|-0-0-0-0-x-2-2-2-2--2-2-2-2-2-2-2-2-|-0-0-0-0-x-2-2-2-2--2-2-2-2--0-0-0-0--|
E|-----------0-0-0-0------------------|-----------0-0-0-0--------------------|

Bridge
Bass riff played throughout)
E|-------------|--------|--------|--------|--------|--------|--------|-------|
B|-------------|--------|--------|--------|--------|--------|--------|-------|
G|-11~~---11~~-|-9-/-11~|-9-/-11~|-9-/-11~|-9-/-11~|-9-/-11~|-9-/-11~|-9-/-11|
D|-11~~---11~~-|-9-/-11~|-9-/-11~|-9-/-11~|-9-/-11~|-9-/-11~|-9-/-11~|-9-/-11|
A|--9~~----9~~-|-7-/--9~|-7-/--9~|-7-/--9~|-7-/--9~|-7-/--9~|-7-/--9~|-7-/--9|
E|-------------|--------|--------|--------|--------|--------|--------|-------|

E|--------|--------|--------|--------|--------|
B|--------|--------|--------|--------|--------|
G|-9-/-11~|-9-/-11~|-9-/-11~|-9-/-11~|-9-/-11~|
D|-9-/-11~|-9-/-11~|-9-/-11~|-9-/-11~|-9-/-11~|
A|-7-/--9~|-7-/--9~|-7-/--9~|-7-/--9~|-7-/--9~|
E|--------|--------|--------|--------|--------|

Then play this
Outro
E|-------|
B|-------|
G|-9/11~-| about 74 times real fast
D|-9/11~-|
A|-7/-9~-|
E|-------|

Order

Intro
Verse x2
Chorus
Intro
Verse x2
Chorus
Intro x2
Bridge
Outro
And finally end on a few on these (to fade out into Longview)

E|------|
B|------|
G|--11~-|
D|--11~-|
A|---9~-|
E|------|

(Lyrics)

(Verse 1)
I don't know you
But I think I hate you
You're the reason for my misery
Strange how you've become
My biggest enemy
And I've never seen your face

(Chorus)
Well maybe its just jealousy
Mixing up with a violent mind
A circumstance that
Doesn't make much sense
Or maybe I'm just dumb

(Verse 2)
You're the cloud
Hangin' out over my head
Hail comes drenching down welting my face
Magic man, Egocentric plastic man
Yet you still got one over on me

(Chorus)
Well maybe its just jealousy
Mixing up with a violent mind
A circumstance that
Doesn't make much sense
Or maybe I'm just dumb

(Intro)
I'm just dumb

(Bridge)

Intro
played by bass)
G|------|
D|------|
A|-19/5-| (slide real slow)
E|------|

Verse
played by Bass)
G|---------------------------------------9-7-6-7-|
D|------9-7-6-------7--6----------9-7-6--0-0-0-0-|
A|-5h7---------7p5-------5---9p7-----------------|
E|-----------------------------------------------|

Pre Chorus (played by Bass)
G|--------------------------------------|
D|------9-7-6-------7--6----------9-7-6-|
A|-5h7---------7p5-------5---9p7--------|
E|--------------------------------------|

Pre Chorus
e|-------------------------|
B|-------------------------|
G|-7-7-7-7-7-7-7-7-7-7-7-7-|
D|-7-7-7-7-7-7-7-7-7-7-7-7-|
A|-5-5-5-5-5-5-5-5-5-5-5-5-|
E|-------------------------|

Chorus
e|----------------------------------|----------------------------------|
B|----------------------------------|----------------------------------|
G|--------------------------9-9-9-9-|--------------------------9-9-9-9-|
D|-9-9-9-9-9-9-9-9--7-7-7-7-9-9-9-9-|-9-9-9-9-9-9-9-9--7-7-7-7-9-9-9-9-|
A|-9-9-9-9-9-9-9-9--7-7-7-7-7-7-7-7-|-9-9-9-9-9-9-9-9--7-7-7-7-7-7-7-7-|
E|-7-7-7-7-7-7-7-7--5-5-5-5---------|-7-7-7-7-7-7-7-7--5-5-5-5---------|

e|----------------------------------|-----------------------------------|
B|----------------------------------|-----------------------------------|
G|--------------------------9-9-9-9-|-----------------------------------|
D|-9-9-9-9-9-9-9-9--7-7-7-7-9-9-9-9-|-9-9-9-9-9-9-9-9--7-7-7-7--7-7-7-7-|
A|-9-9-9-9-9-9-9-9--7-7-7-7-7-7-7-7-|-9-9-9-9-9-9-9-9--7-7-7-7--7-7-7-7-|
E|-7-7-7-7-7-7-7-7--5-5-5-5---------|-7-7-7-7-7-7-7-7--5-5-5-5--5-5-5-5-|

Fill 1 (played by Bass)
G|------7---------9----7--6-------|------7---------9----7--6-----------|
D|---------7--7h9---9--------9--7-|---------7--7h9---9--------9--7-----|
A|-9p7----------------------------|-9p7--------------------------------|
E|--------------------------------|------------------------------------|

Bridge
'ive got no motivation')
e|------------------|------------------|------------------|------------------|
B|------------------|------------------|------------------|------------------|
G|-9~--9-9--7-7-7-7-|-9~--9-9--7-7-7-7-|-9~--9-9--7-7-7-7-|-9~--9-9--7-7-7-7-|
D|-9~--9-9--7-7-7-7-|-9~--9-9--7-7-7-7-|-9~--9-9--7-7-7-7-|-9~--9-9--7-7-7-7-|
A|-7~--7-7--5-5-5-5-|-7~--7-7--5-5-5-5-|-7~--7-7--5-5-5-5-|-7~--7-7--5-5-5-5-|
E|------------------|------------------|------------------|------------------|

Pre Chorus 2
e|-----------------------------------------------|
B|-----------------------------------------------|
G|-7-7-7-7-7-7-7-7--7-7-7-7-7-7-7-7--7-7-7-7-7-7-|
D|-7-7-7-7-7-7-7-7--7-7-7-7-7-7-7-7--7-7-7-7-7-7-|
A|-5-5-5-5-5-5-5-5--5-5-5-5-5-5-5-5--5-5-5-5-5-5-|
E|-----------------------------------------------|

Chorus 2
e|----------------------------------|----------------------------------|
B|----------------------------------|----------------------------------|
G|--------------------------9-9-9-9-|--------------------------9-9-9-9-|
D|-9-9-9-9-9-9-9-9--7-7-7-7-9-9-9-9-|-9-9-9-9-9-9-9-9--7-7-7-7-9-9-9-9-|
A|-9-9-9-9-9-9-9-9--7-7-7-7-7-7-7-7-|-9-9-9-9-9-9-9-9--7-7-7-7-7-7-7-7-|
E|-7-7-7-7-7-7-7-7--5-5-5-5---------|-7-7-7-7-7-7-7-7--5-5-5-5---------|

e|----------------------------------|----------------------------------|
B|----------------------------------|----------------------------------|
G|--------------------------9-9-9-9-|--------------------------9-9-9-9-|
D|-9-9-9-9-9-9-9-9--7-7-7-7-9-9-9-9-|-9-9-9-9-9-9-9-9--7-7-7-7-9-9-9-9-|
A|-9-9-9-9-9-9-9-9--7-7-7-7-7-7-7-7-|-9-9-9-9-9-9-9-9--7-7-7-7-7-7-7-7-|
E|-7-7-7-7-7-7-7-7--5-5-5-5---------|-7-7-7-7-7-7-7-7--5-5-5-5---------|

Outro
e|---------------|-----------12--12*|---------------|-----------12--12*|
B|-9h10--10--7~--|----9h10---12--12*|-9h10--10--7~--|----9h10---12--12*|
G|-9------9--7~--|--9---------9-----|-9------9--7~--|--9---------9-----|
D|---------------|------------------|---------------|------------------|
A|---------------|------------------|---------------|------------------|
E|---------------|------------------|---------------|------------------|

Order

Verse x5
played by bass)
Pre Chorus
Chorus
Fill 1 (played by bass)

Verse x3
played by bass)
Pre Chorus
Chorus
Bridge
Chorus
Fill 1 x4 (played by bass)

Verse
played by bass)
Pre Chorus 2
Chorus 2
Chorus
Outro x2 then to fade

(Lyrics)

(Verse 1)
Sit around and watch the tube, nothing's on
Change the channel for an hour or two
Twiddle my thumbs just for a bit
I'm sick of all the same old shit
In a house with unlocked doors
And I'm fuckin lazy

(Chorus)
Bite my lip and close my eyes
Take me away to paradise
I'm so damn bored I'm goin blind
And I smell like shit

(Verse 2)
Peel me off this Velcro seat and get me movin'
I sure as hell can't do it by myself
I'm feelin like a dog in heat
Barred indoors from a summer street
I locked the door to my own cell
And I lost the key

(Chorus)
Bite my lip and close my eyes
Take me away to paradise
I'm so damn bored I'm goin blind
And I smell like shit

(Bridge)
I got no motivation
Where is my motivation?
No time for my motivation
Smokin' my inspiration

(Verse 3)
Sit around and watch the phone, no one's callin
Call me pathetic, call me what you will
My mother says to get a job
But she don't like the one she's got
When masturbation's lost it's fun
You're fuckin lazy

(Pre chorus 2)
Sing....

(Chorus 2)
Bite my lip and close my eyes
Take me away to paradise
I'm so damn bored I'm goin blind
And none of this has to suffice
Bite my lip and close my eyes
Oh slippin' away to paradise
Some say quit or I'll go blind
But it's just a myth

(Outro)

Intro
e|------------------------------|------------------------------|
B|------------------------------|------------------------------|
G|-9-x-x-9-9-9-9--7-7-7---------|-9-x-x-9-9-9-9--7-7-7---------|
D|-9-x-x-9-9-9-9--7-7-7-7-7-7-7-|-9-x-x-9-9-9-9--7-7-7-7-7-7-7-|
A|-7-x-x-7-7-7-7--5-5-5-7-7-7-7-|-7-x-x-7-7-7-7--5-5-5-7-7-7-7-|
E|----------------------5-5-5-5-|----------------------5-5-5-5-|

Verse
e|-------------------------------------------|---------------------------|
B|-------------------------------------------|---------------------------|
G|-9-9-9-9--7-7-7-7-7-7--9-x-x-9-x-9-x-9-9-9-|-9-9-9-9--7-7-7-7----------|
D|-9-9-9-9--7-7-7-7-7-7--9-x-x-9-x-9-x-9-9-9-|-9-9-9-9--7-7-7-7--5-5-5-5-|
A|-7-7-7-7--5-5-5-5-5-5--7-x-x-7-x-7-x-7-7-7-|-7-7-7-7--5-5-5-5--5-5-5-5-|
E|-------------------------------------------|-------------------3-3-3-3-|

e|-------------|
B|-------------|
G|-------------|
D|-9-9-9-9-9-9-|
A|-9-9-9-9-9-9-|
E|-7-7-7-7-7-7-|

Pre Chorus
e|----------------------------------|
B|----------------------------------|
G|----------------------------------|
D|-5-5-5-5--9-9-9-9-9-9-9-9-9-9-9-9-|
A|-5-5-5-5--9-9-9-9-9-9-9-9-9-9-9-9-|
E|-3-3-3-3--7-7-7-7-7-7-7-7-7-7-7-7-|

Chorus
e|--------------------------------------|---------------------------------|
B|--------------------------------------|---------------------------------|
G|---------------------------5-5-5-5-5-5|------------------4-4-4-4-4-4-4-4|
D|-2-2-2-2-5-5-5-5-5-7-7-7-7-5-5-5-5-5-5|2-2-2-2-5-5-5-5-5-4-4-4-4-4-4-4-4|
A|-2-2-2-2-5-5-5-5-5-7-7-7-7-3-3-3-3-3-3|2-2-2-2-5-5-5-5-5-2-2-2-2-2-2-2-2|
E|-0-0-0-0-3-3-3-3-3-5-5-5-5------------|0-0-0-0-3-3-3-3-3----------------|

e|--------------------------------------|------------------|
B|--------------------------------------|------------------|
G|---------------------------5-5-5-5-5-5|------------------|
D|-2-2-2-2-5-5-5-5-5-7-7-7-7-5-5-5-5-5-5|-5/9-9-9-9-9-9--9-|
A|-2-2-2-2-5-5-5-5-5-7-7-7-7-3-3-3-3-3-3|-5/9-9-9-9-9-9--9-|
E|-0-0-0-0-3-3-3-3-3-5-5-5-5------------|-3/7-7-7-7-7-7--7-|

Interlude
Bass
G|---------|----------|---------|---------|
D|-----7h9-|-------9--|-----8---|-----7---|
A|-7-7-----|-10-10--10|-9-9---9-|-8-8---8-| x16
E|---------|----------|---------|---------|

Guitar 1 (start on the 5th repeat of the bass riff and you should end on the
e|-----------------------------------------| 8th repeat
B|-----------------------------------------|
G|--2b~----------------------7b---5-4-3-2--|
D|------2b~--3-2-0-2-3-2-------------------|
A|-----------------------------------------|
E|-----------------------------------------|

Guitar 1 (play straight after above riff)
e|------------------------------------------------|
B|------------------------------------------------|
G|-9-9-9-9--12-12-12-12--11-11-11-11--10-10-10-10-|
D|-9-9-9-9--12-12-12-12--11-11-11-11--10-10-10-10-| x8
A|-7-7-7-7--10-10-10-10---9--9--9--9---8--8--8--8-|
E|------------------------------------------------|

Guitar 2 (start on the 4th repeat of guitar 1 riff above)
e|------------------------------------------------|
B|------------------------------------------------|
G|-9-9-9-9--12-12-12-12--11-11-11-11--10-10-10-10-|
D|-9-9-9-9--12-12-12-12--11-11-11-11--10-10-10-10-| x4
A|-7-7-7-7--10-10-10-10---9--9--9--9---8--8--8--8-|
E|------------------------------------------------|

Guitar 1 and 2 (play straight after above riff)
e|------------------------------------------------|
B|------------------------------------------------|
G|-9-9-9-9--12-12-12-12--11-11-11-11--10-10-10-10-|
D|-9-9-9-9--12-12-12-12--11-11-11-11--10-10-10-10-| x4
A|-7-7-7-7--10-10-10-10---9--9--9--9---8--8--8--8-|
E|------------------------------------------------|

Outro
e|------------------------------|-----------------------------------|
B|------------------------------|-----------------------------------|
G|-9-x-x-9-9-9-9--7-7-7---------|-9-x-x-9-9-9-9--7-7-7----------9#--|
D|-9-x-x-9-9-9-9--7-7-7-7-7-7-7-|-9-x-x-9-9-9-9--7-7-7-7-7-7-7--9#--|
A|-7-x-x-7-7-7-7--5-5-5-7-7-7-7-|-7-x-x-7-7-7-7--5-5-5-7-7-7-7--7#--|
E|----------------------5-5-5-5-|----------------------5-5-5-5------|

Order

Intro
play once with one guitar, play again with whole band)
Verse x2
Pre Chorus
Chorus
Intro
Verse x2
Pre Chorus
Chorus
Intro x2
Interlude
Verse x2
Pre Chorus
Chorus
Outro

Order

Intro
play once with one guitar, play again with whole band)
Verse x2
Pre Chorus
Chorus
Intro
Verse x2
Pre Chorus
Chorus
Intro x2
Interlude
Verse x2
Pre Chorus
Chorus
Outro

(Lyrics)

(Verse 1)
Dear mother, can you hear me whining?
It's been three whole weeks
Since I have left your home
This sudden fear has left me trembling
Cos' now it seems that I am
Out here on my own, and I'm feeling so alone

(Chorus)
Pay attention to the cracked streets
And the broken homes
Some call it the slums - some call it nice
I wanna' take you through a wasteland
I like to call my home...
Welcome to paradise

(Verse 2)
A gunshot rings out at the station
Another urchin snaps
And left dead on his own
It makes me wonder why I'm still here
For some strange reason its now
Feeling like my home, and I'm never gonna go

(Chorus)
Pay attention to the cracked streets
And the broken homes
Some call it the slums - some call it nice
I wanna' take you through a wasteland
I like to call my home...
Welcome to paradise

(Interlude)

(Verse 3)
Dear mother, can you hear me laughing?
It's been six whole months
Since I have left your home
It makes me wonder why I'm still here
For some strange reason its now
Feeling like my home, and I'm never gonna go

(Chorus)
Pay attention to the cracked streets
And the broken homes
Some call it the slums - some call it nice
I wanna' take you through a wasteland
I like to call my home...
Welcome to paradise

(Outro)
Oh paradise

Intro                                     Part 2
e|----------------------------------------|-----------------------------------|
B|--------4-4-4-4-4-4-4-4--4-4-4-4-4----4-|-4-4-4-4-4-4-4-4--4-4-4-4-4--5----4|
G|-4-4-4--4-4-4-4-4-4-4-4--4-4-4-4-4-4b-4-|-4-4-4-4-4-4-4-4--4-4-4-4-4--4-4b-4|
D|-4-4-4--4-4-4-4-4-4-4-4--4-4-4-4-4------|-4-4-4-4-4-4-4-4--4-4-4-4-4--4-----|
A|-2-2-2--2-2-2-2-2-2-2-2--0-0-0-0-0------|-2-2-2-2-2-2-2-2--0-0-0-0-0--4-----|
E|----------------------------------------|-----------------------------------|

Verse
e|-0-0-0-0-0--0-0-0-0-0--0-0-0-0-0-------------0-0-0-0-0--0-0-0-0-0-|
B|-0-0-0-0-0--2-2-2-2-2--0-0-0-0-0--4-4-4-4-4--0-0-0-0-0--2-2-2-2-2-|
G|-1-1-1-1-1--2-2-2-2-2--1-1-1-1-1--4-4-4-4-4--1-1-1-1-1--2-2-2-2-2-|
D|-2-2-2-2-2--2-2-2-2-2--2-2-2-2-2--4-4-4-4-4--2-2-2-2-2--2-2-2-2-2-|
A|-2-2-2-2-2--0-0-0-0-0--2-2-2-2-2--2-2-2-2-2--2-2-2-2-2--0-0-0-0-0-|
E|-0-0-0-0-0-------------0-0-0-0-0-------------0-0-0-0-0------------|

e|-0-0-0---------0-0-0-0-0-|
B|-0-0-0--4-4-4--0-0-0-0-0-|
G|-1-1-1--4-4-4--1-1-1-1-1-|
D|-2-2-2--4-4-4--2-2-2-2-2-|
A|-2-2-2--2-2-2--2-2-2-2-2-|
E|-0-0-0---------0-0-0-0-0-|

Chorus
e|----------------------------------0-0-0-0-0--0-------0-------|
B|-----5-5-----5-5-----5-5-----5-5--0-0-0-0-0----0-------0-----|
G|-6-6-6-6-6-6-6-6-6-6-6-6-6-6-6-6--1-1-1-1-1------1-------1---|
D|-6-6-6-6-6-6-6-6-6-6-6-6-6-6-6-6--2-2-2-2-2--------2-------2-|
A|-4-4-4-4-4-4-4-4-4-4-4-4-4-4-4-4--2-2-2-2-2------------------|
E|----------------------------------0-0-0-0-0------------------|

e|-------------------------------------------------------------|
B|-----5-5-----5-5-----5-5-----5-5--4-4-4-4-4-4-4-4-4-4-4-4-4-4|
G|-6-6-6-6-6-6-6-6-6-6-6-6-6-6-6-6--4-4-4-4-4-4-4-4-4-4-4-4-4-4|
D|-6-6-6-6-6-6-6-6-6-6-6-6-6-6-6-6--4-4-4-4-4-4-4-4-4-4-4-4-4-4|
A|-4-4-4-4-4-4-4-4-4-4-4-4-4-4-4-4--2-2-2-2-2-2-2-2-2-2-2-2-2-2|
E|-------------------------------------------------------------|

Solo
with verse played in the background)
e|---0---0-----0--0-0-0---------0-0-0---0--0----0--------------|
B|-0h2---0--0--0--2-2-2---2--0--0-0-0-0h2--0--0-0--2/4--4---4--|
G|----------1--1--2-2-2---2--1----------------1-1--2/4--4---4--|
D|------------------------2------------------------------------|
A|-------------------------------------------------------------|
E|-------------------------------------------------------------|

e|--------------------------------0--0--0-0--0--0--0--0--0-----|
B|--5--5--5---7--7--7---5--4--0---5--5--5/9--9--9--10-9--10/---|
G|--6--6--6---8--8--8---6--4--4--------------------------------|
D|-------------------------------------------------------------|
A|-------------------------------------------------------------|
E|-------------------------------------------------------------|

e|---0--0--0--0--0--0-0-0--0---0--0--0-0--0-0--0--0--0----0----|
B|--/12-12-12-10-10-9-9-10-10--10\9--9\7--7\5--5-------0-------|
G|-----------------------------------------------------1-------|
D|-------------------------------------------------------------|
A|-------------------------------------------------------------|
E|-------------------------------------------------------------|

e|-12-12----12-----|
B|-12----12----12--|
G|-----------------|
D|-----------------|
A|-----------------|
E|-----------------|

Outro
e|-0-0-0-0-0--0-0-0-0-0--0-0-0-0-0-------------0-0-0-0-0--0-0-0-0-0--0---0---0-|
B|-0-0-0-0-0--2-2-2-2-2--0-0-0-0-0--4-4-4-4-4--0-0-0-0-0--2-2-2-2-2--0-4-2-4-0-|
G|-1-1-1-1-1--2-2-2-2-2--1-1-1-1-1--4-4-4-4-4--1-1-1-1-1--2-2-2-2-2--1-4-2-4-1-|
D|-2-2-2-2-2--2-2-2-2-2--2-2-2-2-2--4-4-4-4-4--2-2-2-2-2--2-2-2-2-2--2-4-2-4-2-|
A|-2-2-2-2-2--0-0-0-0-0--2-2-2-2-2--2-2-2-2-2--2-2-2-2-2--0-0-0-0-0--2-2-0-2-2-|
E|-0-0-0-0-0-------------0-0-0-0-0-------------0-0-0-0-0-------------0-------0-|

Order

Intro
Part 2 x3
Verse x2
Chorus

Verse x2
on second repeat guitar 2 plays the solo in the background)
Chorus
Part 2 x7

Verse
let last chord ring out)

(Lyrics)

(Verse)
I'm all busted up
Broken bones and nasty cuts
Accidents will happen
But this time I can't get up
She comes to check on me
Making sure I'm on my knees
After all, she's the one
Who put me in this state?

(Chorus)
Is she ultra-violent?
Is she disturbed?
I better tell her that I love her
Before she does it all over again
Oh God, she's killing me

(Verse 3)
For now I'll lye around
Hell that's all I can really do
She takes good care of me
Just keep saying my love is true

(Chorus)
Is she ultra-violent?
Is she disturbed?
I better tell her that I love her
Before she does it all over again

(Part 2)
Lookin out my window
For someone that's passing by
No one knows I'm locked in here
All I do is cry

(Verse)
For now I'll lye around
Hell that's all I can really do
She takes good care of me
Just keep saying my love is true

Verse
e|---------------------|------------------|---------------------|------------------|
b|---------------------|------------------|---------------------|------------------|
g|-9--------------9----|------------------|-6-------6-------6---|------------------|
D|-9--9-9-9-9-9-9-9--9-|------9---------9-|-6--6-6--6--6-6--6--6|------6---------6-|
a|-7--7-7-7-7-7-7-7--9-|-9-9--9--9-9-9--9-|-4--4-4--4--4-4--4--6|-6-6--6--6-6-6--6-|
e|-------------------7-|-7-7--7--7-7-7--7-|--------------------4|-4-4--4--4-4-4--4-|

e|---------------------|------------------|--------------------|-------------------|
b|---------------------|------------------|--------------------|-------------------|
g|-------------------9-|------9---------9-|--------------------|-------------------|
D|------7-------7--9-9-|-9-9--9--9-9-9--9-|------9-----------9-|-----9---------9--9|
a|-7-7--7--7-7--7--7-7-|-7-7--7--7-7-7--7-|-9-9--9--9-9-9-9--9-|9-9--9--9-9-9--9--7|
e|-5-5--5--5-5--5------|------------------|-7-7--7--7-7-7-7--7-|7-7--7--7-7-7--7---|
PM ***     ***     *     ***     *****      ***     *******      ***     *****     *

Chorus
e|--------------------|---------------------|-------------------|-------------------|
b|--------------------|---------------------|-------------------|-------------------|
g|--------------------|---------------------|-----9-----------9-|-----9---------9---|
d|-----7-------7-----9|------9---------9--9-|9-9--9--9-9-9-9--9-|-9-9-9--9-9-9--9--9|
a|7-7--7--7-7--7--9--9|-9-9--9--9-9-9--9--7-|7-7--7--7-7-7-7--7-|-7-7-7--7-7-7--7--7|
e|5-5--5--5-5--5--7--7|-7-7--7--7-7-7--7----|-------------------|-------------------|
PM ***    ***     *     ***     *****     *******    *******      ***    *****     *

e|--------------------|---------------------|-------------------|-------------------|
b|--------------------|---------------------|-------------------|-------------------|
g|--------------------|---------------------|-----9-----------9-|-----9---------9---|
d|-----7-------7-----9|------9---------9--9-|9-9--9--9-9-9-9--9-|-9-9-9--9-9-9--9--9|
a|7-7--7--7-7--7--9--9|-9-9--9--9-9-9--9--7-|7-7--7--7-7-7-7--7-|-7-7-7--7-7-7--7--7|
e|5-5--5--5-5--5--7--7|-7-7--7--7-7-7--7----|-------------------|-------------------|
PM ***    ***     *     ***     *****     *******    *******      ***    *****     *

e|----------------------|---------------------|
b|----------------------|---------------------|
g|----------------------|---------------------|
d|------7-------7-----9-|------9---------9--9-|
a|-7-7--7--7-7--7--9--9-|-9-9--9--9-9-9--9--7-|
e|-5-5--5--5-5--5--7--7-|-7-7--7--7-7-7--7----|
PM ***     ***     *      ***     *****     *

Post Chorus
e|------------------------------------------------------------------|
B|-9--7-7--x--5--5--5--5--5--5--5-----------------------------------|
G|-9--7-7--x--6--6--6--6--6--6--6-------------------------------9-9-|
D|-9--7-7--x--6--6--6--6--6--6--6--7-7-------------9-9-9-9-9-9--9-9-|
A|-7--5-5--x--4--4--4--4--4--4--4--7-7--7-7-7-7-7--9-9-9-9-9-9--7-7-|
E|---------------------------------5-5--5-5-5-5-5--7-7-7-7-7-7------|

Coda
e|----------------------------|----------------------------|
B|-9-x-x--4-x-x--5-x-x--4-4-4-|-9-x-x--4-x-x--5-x-x--4-4-4-|
G|-9-x-x--4-x-x--6-x-x--4-4-4-|-9-x-x--4-x-x--6-x-x--4-4-4-|
D|-9-x-x--4-x-x--6-x-x--4-4-4-|-9-x-x--4-x-x--6-x-x--4-4-4-|
A|-7-x-x--2-x-x--4-x-x--2-2-2-|-7-x-x--2-x-x--4-x-x--2-2-2-|
E|----------------------------|----------------------------|

Verse 2
e|-0--0--0--0----------------------|----------------------------------------------|
B|-0--0--0--0--x--4-4-4-4-4-4--x-x-|----------------------------------------------|
G|-1--1--1--1--x--4-4-4-4-4-4--x-x-|-6-6-6-6--------------------------9-9-9-9-9-9-|
D|-2--2--2--2--x--4-4-4-4-4-4--x-x-|-6-6-6-6-x-6-6-6-6-6-6--7-7-7-7-x-9-9-9-9-9-9-|
A|-2--2--2--2--x--2-2-2-2-2-2--x-x-|-4-4-4-4-x-6-6-6-6-6-6--7-7-7-7-x-7-7-7-7-7-7-|
E|-0--0--0--0----------------------|---------x-4-4-4-4-4-4--5-5-5-5-x-------------|

e|---------------------|
B|---------------------|
G|---------------------|
D|-9-9-9-9-9-9-9-9-9-9-|
A|-9-9-9-9-9-9-9-9-9-9-|
E|-7-7-7-7-7-7-7-7-7-7-|

Chorus 2
e|--------------------------------|-------------------------------|
B|--------------------------------|9--9--9--9-x-10-10-10-10-10-10-|
G|--------------------------------|9--9--9--9-x--9--9--9--9--9--9-|
D|-7--7--7--7-----9--9-9-9--9--9--|9--9--9--9-x--9--9--9--9--9--9-|
A|-7--7--7--7-----9--9-9-9--9--9--|7--7--7--7-x--7--7--7--7--7--7-|
E|-5--5--5--5--0--7--7-7-7--7--7--|-------------------------------|

e|----------------------|-------------------------------|---------------------|
B|----------------------|9--9--9--9-x-10-10-10-10-10-10-|---------------------|
G|----------------------|9--9--9--9-x--9--9--9--9--9--9-|---------------------|
D|7-7-7-7---9-9-9-9-9-9-|9--9--9--9-x--9--9--9--9--9--9-|7-7-7-7---9-9-9-9-9-9|
A|7-7-7-7---9-9-9-9-9-9-|7--7--7--7-x--7--7--7--7--7--7-|7-7-7-7---9-9-9-9-9-9|
E|5-5-5-5-0-7-7-7-7-7-7-|-------------------------------|5-5-5-5-0-7-7-7-7-7-7|

Bridge
e|-----------------------------------|-------------------|
B|-----------------------------------|-------------------|
G|-----------------------------------|-------------------|
D|-7---------------------------------|-9-9-9-9-9-9-9-9-9-|
A|-7---7-7-7-7-7-7-7-7-7-7-7-7-7-7-7-|-9-9-9-9-9-9-9-9-9-|
E|-5---5-5-5-5-5-5-5-5-5-5-5-5-5-5-5-|-7-7-7-7-7-7-7-7-7-|

Pre Outro (there are two guitars tracks here)

Guitar 1 (when playing live this is usually pre recorded)
e|---0-----0----|---------0----|------------------------------|
B|------0-----0-|------------0-|------------------------------|
G|-1----2-------|------------x-|-------9-9-x------------------|
D|-2------------|-------6----7-|-7--7--9-9-x--9-9-9-9-9-9-9-9-|
A|--------------|-4--4--4------|-7--7--7-7-x--9-9-9-9-9-9-9-9-|
E|--------------|--------------|-5--5---------7-7-7-7-7-7-7-7-|

Guitar 2 (Billie usually plays this live)
E|--------------|--------------|------------------------------|
B|--------------|--------------|------------------------------|
G|--9-9-9--9-9--|--6-6-6--6-6--|-------9-9-x------------------|
D|--9-9-9--9-9--|--6-6-6--6-6--|-7--7--9-9-x--9-9-9-9-9-9-9-9-|
A|--7-7-7--7-7--|--4-4-4--4-4--|-7--7--7-7-x--9-9-9-9-9-9-9-9-|
E|--------------|--------------|-5--5---------7-7-7-7-7-7-7-7-|

Outro
Guitar 1 (when playing live this is usually pre recorded)
e|---0-----0---|----------0----|-------------|
B|------0----0-|-------------0-|-------------|
G|-1----2------|-------------x-|-----9-------|
D|-2-----------|-6-(6)--6----7-|-7---9--9~~--|
A|-------------|-4-(4)--4------|-7---7--9~~--|
E|-------------|---------------|-5------7~~--|

Guitar 2 (Billie usually plays this live)
E|-------------|---------------|-------------------------------|
B|-------------|---------------|-------------------------------|
G|-9-9-9--9-9--|--6-6-6--6-6---|-----9---------------2-----4~~-|
D|-9-9-9--9-9--|--6-6-6--6-6---|-7---9--9~~----------2--2--4~~-|
A|-7-7-7--7-7--|--4-4-4--4-4---|-7---7--9~~----------0--2--2~~-|
E|-------------|---------------|-5------7~~--16\7p0-----0------|

Order

Verse x2
Chorus x2
Post chorus
Coda
Verse 2 x2
Chorus 2
Post chorus
Coda x2
Bridge
Verse 2 x2
Chorus
Post Chorus
Pre Outro x3
Outro

(Lyrics)

(Verse)
Do you have the time, to listen to me whine?
About nothing and everything, all at once
I am one of those - Melodramatic fools
Neurotic to the bone - No doubt about it

(Chorus)
Sometimes I give myself the creeps
Sometimes my mind plays tricks on me
It all keeps adding up

(Post chorus)
I think I'm crackin' up
Am I just paranoid?
Am I just stoned?

 Coda

(Verse 2)
I went to a shrink - To analyse my dreams
She says it's lack of sex - That's bringing me down
I went to a whore - He said my life's a bore
So quit my whining - Cos' it's bringing her down

(Chorus 2)
Sometimes I give myself the creeps
Sometimes my mind plays tricks on me
It all keeps adding up

(Post chorus)
I think I'm crackin' up
Am I just paranoid?
Am I just a ya ya yeah!

 Coda
Oi, oi

(Bridge)
Grasping to control - so I better hold on

(Verse with no lyrics)

(Chorus)
Sometimes I give myself the creeps
Sometimes my mind plays tricks on me
It all keeps adding up

(Post chorus)
I think I'm crackin' up
Am I just paranoid?
Am I just stoned?

(Outro's)

Intro/Verse (bass)
G|----------------------------------------------------------|
D|--4-4-4-4-4-4-4/6---------------------------4-4-4-4-4-----|
A|------------------4-4-4-4-4-4---2-2-2-2-2-2---------------|
E|------------------------------4---------------------------|

G|----------------------------------------------------------|
D|-4-4-4-4-4-4-4/6---------------------3h4--3h4--3h4--------|
A|-----------------4-4-4-4-4---2-2-2-2-----2----2-----------|
E|---------------------------4------------------------3-3-3-|

Pre Chorus
E|-------------------|
B|-------------------|
G|-------------------|
D|-4-4-4-4-4-4-4-4-4-|
A|-4-4-4-4-4-4-4-4-4-|
E|-2-2-2-2-2-2-2-2-2-|

Chorus
E|--------------------------------------|----------------------------------------|
B|--------------------------------------|----------------------------------------|
G|-6-6-6-6-6-6-6-6--4-4-4-4-------------|-6-6-6-6-6-6-6-6--4-4-4-4---------------|
D|-6-6-6-6-6-6-6-6--4-4-4-4-4-4-4-4-4-4-|-6-6-6-6-6-6-6-6--4-4-4-4--4-4-4-4-4-4--|
A|-4-4-4-4-4-4-4-4--2-2-2-2-4-4-4-4-4-4-|-4-4-4-4-4-4-4-4--2-2-2-2--4-4-4-4-4-4--|
E|--------------------------2-2-2-2-2-2-|---------------------------2-2-2-2-2-2--|

E|---------------------|---------------------|-------------------------------------|
B|---------------------|---------------------|-------------------------------------|
G|-4-4-4-4-------------|-4-4-4-4-------------|-4-4-4-4-------------6-6-6-6-6-6-6-6-|
D|-4-4-4-4-4-4-4-4-4-4-|-4-4-4-4-4-4-4-4-4-4-|-4-4-4-4-4-4-4-4-4-4-6-6-6-6-6-6-6-6-|
A|-2-2-2-2-4-4-4-4-4-4-|-2-2-2-2-4-4-4-4-4-4-|-2-2-2-2-4-4-4-4-4-4-4-4-4-4-4-4-4-4-|
E|---------2-2-2-2-2-2-|---------2-2-2-2-2-2-|---------2-2-2-2-2-2-----------------|

Verse 2
E|-----------------------------------------------------------------------------------|
B|-----------------------------------------------------------------------------------|
G|---------------------6-6-6-6-6-6-6-6-6-6--4-4-4-4-4-4-4-4-4-4--4-4-4-4-4-4-4-4-4-4-|
D|-4-4-4-4-4-4-4-4-4-4-6-6-6-6-6-6-6-6-6-6--4-4-4-4-4-4-4-4-4-4--4-4-4-4-4-4-4-4-4-4-|
A|-4-4-4-4-4-4-4-4-4-4-4-4-4-4-4-4-4-4-4-4--2-2-2-2-2-2-2-2-2-2--2-2-2-2-2-2-2-2-2-2-|
E|-2-2-2-2-2-2-2-2-2-2---------------------------------------------------------------|

E|------------|---------------------------------------------------------------------|
B|------------|---------------------------------------------------------------------|
G|-----4------|--------------------6-6-6-6-6-6-6-6-6--4-4-4-4-4-4-4-4-4--4-4-4-4-4-4|
D|-4-4-4-4-4--|-4-4-4-4-4-4-4-4-4--6-6-6-6-6-6-6-6-6--4-4-4-4-4-4-4-4-4--4-4-4-4-4-4|
A|-4-4-2-4-4--|-4-4-4-4-4-4-4-4-4--4-4-4-4-4-4-4-4-4--2-2-2-2-2-2-2-2-2--2-2-2-2-2-2|
E|-2-2---2-2--|-2-2-2-2-2-2-2-2-2---------------------------------------------------|
PM ***   ***      *****   *****      *****   *****      *****   *****

E|---------------------------------|
B|---------------------------------|
G|-4-4-4-4-------4-4-x-------------|
D|-4-4-4-4---4-4-4-4-x-4-4-4-4-4-4-|
A|-2-2-2-2---4-4-2-2-x-4-4-4-4-4-4-|
E|-----------2-2-------2-2-2-2-2-2-|

Bridge
E|----------------------------------------------------------------------------------|
B|----------------------------------------------------------------------------------|
G|----------------------6-6-6-6-6-6-6-6-6-6--4-4-4-4-4-4-4-4-4-4-4-4-------4-4-x----|
D|-4-4-4-4-4-4-4-4-4-4--6-6-6-6-6-6-6-6-6-6--4-4-4-4-4-4-4-4-4-4-4-4--4-4--4-4-x----|
A|-4-4-4-4-4-4-4-4-4-4--4-4-4-4-4-4-4-4-4-4--2-2-2-2-2-2-2-2-2-2-2-2--4-4--2-2-x----|
E|-2-2-2-2-2-2-2-2-2-2------------------------------------------------2-2-----------|

E|-----------------|----------------------------------------------------------------|
B|-----------------|----------------------------------------------------------------|
G|-----------------|---------------------6-6-6-6-6-6-6-6-6-6--4-4-4-4-4-4-4-4-4-4-4-|
D|-4-4-4-4-4-4-4-4-|-4-4-4-4-4-4-4-4-4-4-6-6-6-6-6-6-6-6-6-6--4-4-4-4-4-4-4-4-4-4-4-|
A|-4-4-4-4-4-4-4-4-|-4-4-4-4-4-4-4-4-4-4-4-4-4-4-4-4-4-4-4-4--2-2-2-2-2-2-2-2-2-2-2-|
E|-2-2-2-2-2-2-2-2-|-2-2-2-2-2-2-2-2-2-2--------------------------------------------|

E|----------------------------|
b|----------------------------|
G|-----4-4-x------------------|
D|-4-4-4-4-x--4-4-4-4-4-4-4-4-|
A|-4-4-2-2-x--4-4-4-4-4-4-4-4-|
E|-2-2--------2-2-2-2-2-2-2-2-|

End
E|-----|
E|-----|
G|-----|
D|-4#--|
A|-4#--|
E|-2#--|

Order

Intro/Verse
Pre Chorus
Chorus
Verse 2
Chorus
Bridge
Chorus

(Lyrics)

(Verse)
She, she screams in silence
A sullen riot penetrating through her mind
Waiting for a time to smash the silence
With a brick of self-control

(Chorus)
Are you locked up in a world that's been planned out for you?
Are you feeling like a social tool without a use?
Scream at me until my ears bleed
I'm taking it in just for you

(Verse 2)
She, she's figured out all her doubts
Were someone else's point of view
Waking up this time to smash the silence
With a brick of self-control

(Chorus)
Are you locked up in a world that's been planned out for you?
Are you feeling like a social tool without a use?
Scream at me until my ears bleed
I'm taking it in just for you
Aaaaaaaahhhhhhhh!

(Bridge)

(Chorus)
Are you locked up in a world that's been planned out for you?
Are you feeling like a social tool without a use?
Scream at me until my ears bleed
I'm taking it in just for you

(outro)

Intro
e|----------------|
B|----------------|
G|-7~~------------|
D|-7~~--7~~--2~~--|
A|-5~~--7~~--2~~--|
E|------5~~--0~~--|

Verse
e|-------------------------------------------|
B|-------------------------------------------|
G|-----------9-7-6-7-7-7-7-7-----------------|
D|-7-7-7-7-7-9-7-6-7-7-7-7-7-2-2-2-2-2-2-2-2-|
A|-7-7-7-7-7-7-5-4-5-5-5-5-5-2-2-2-2-2-2-2-2-|
E|-5-5-5-5-5-----------------0-0-0-0-0-0-0-0-|

Chorus
e|------------------------------------------------------------------------|
B|------------------------------------------------------------------------|
G|-7-7-7-7-------------7-7-7-7--------------7~----------------------------|
D|-7-7-7-7-2-2-2-2-2-2-7-7-7-7-2-2-2-2-2-2--7~-----7~-----2-2-2-2-2-2-2-2-|
A|-5-5-5-5-2-2-2-2-2-2-5-5-5-5-2-2-2-2-2-2--5~--5--7~-----2-2-2-2-2-2-2-2-|
E|---------0-0-0-0-0-0---------0-0-0-0-0-0---------5~--5--0-0-0-0-0-0-0-0-|

e|-----------------|
B|-----------------|
G|-----------------|
D|-2-2-2-2-2-2-2-2-|
A|-2-2-2-2-2-2-2-2-|
E|-0-0-0-0-0-0-0-0-|

Bridge
e|--------------------------------------------------------------------|
B|--------------------------------------------------------------------|
G|-----------7-7-7-7-7-7------------7-7-7-7-7-7-----------7-7-7-7-7-7-|
D|-4-4-4-4-4-7-7-7-7-7-7--4-4-4-4-4-7-7-7-7-7-7-4-4-4-4-4-7-7-7-7-7-7-|
A|-4-4-4-4-4-5-5-5-5-5-5--4-4-4-4-4-5-5-5-5-5-5-4-4-4-4-4-5-5-5-5-5-5-|
E|-2-2-2-2-2--------------2-2-2-2-2-------------2-2-2-2-2-------------|

e|---------------------------------|
B|---------------------------------|
G|-9-9-9-9-9-9-9-9-9-9-9-9-9-9-9-9-|
D|-9-9-9-9-9-9-9-9-9-9-9-9-9-9-9-9-|
A|-7-7-7-7-7-7-7-7-7-7-7-7-7-7-7-7-|
E|---------------------------------|

Order

Intro
Verse x6
Chorus
Verse x6
Chorus
Verse x2
Bridge
Verse x2
Chorus x4

(Lyrics)

(Verse)
Roamin' round your house wasting your time
No obligation just wasting your time
So why are you alone wasting your time?
When you could be with me wasting your time

(Chorus)
(Chorus)
Well I'm a waste like you
With nothing else'l do
May I waste your time too?

(Verse)
Wardin' off regrets wasting your time
Smoking cigarettes wasting your time
I'm just a parasite wasting your time
Applying myself to wasting your time

(Chorus)
Well I'm a waste like you
With nothing else'l do
May I waste your time too?

(Bridge)

(Verse)
So why are you alone wasting your time?
When you could be with me wasting your time

 (Chorus)
Well I'm a waste like you
With nothing else'l do
May I waste your time too?

May I waste your time too?
May I waste your time too?
May I waste your time too?

Intro
E|------|--------------------------|-------------|
B|------|--------------------------|----8-----5--|
G|----0-|-------------------7------|----9-----5--|
D|-x--0-|------5-------7-7--7--7-7-|-9--9--9--5--|
A|-x----|-5-5--5--5-5--5-5--5--5-5-|-7--7--7--3--|
E|-x----|-3-3--3--3-3--------------|-------------|

Verse
E|--------------------------|-------------------------|
B|--------------------------|----8-----5-----5--------|
G|-------------------7------|----9-----5-----5--------|
D|------5-------7-7--7--7-7-|-9--9--9--5-----5--7-7---|
A|-5-5--5--5-5--5-5--5--5-5-|-7--7--7--3-----3--5-5---|
E|-3-3--3--3-3--------------|-------------------------|

Chorus
E|-------------------|-----------------|------------------|-----------|
B|-------------------|-5-5-5-5-5-5-5-5-|------------------|-5-5-5-5-5-|
G|-2-2-2-2-2-2-2-2-2-|-5-5-5-5-5-5-5-5-|-2-2-2-2--2-2-2---|-5-5-5-5-5-|
D|-2-2-2-2-2-2-2-2-2-|-5-5-5-5-5-5-5-5-|-2-2-2-2--2-2-2-2-|-5-5-5-5-5-|
A|-0-0-0-0-0-0-0-0-0-|-3-3-3-3-3-3-3-3-|-0-0-0-0--0-0-0-0-|-3-3-3-3-3-|
E|-------------------|-----------------|------------------|-----------|

Solo
there are two tracks in the guitar solo here they are
Guitar 1
E|--------------------------|-------------------------|
B|--------------------------|----8-----5-----5--------|
G|-------------------7------|----9-----5-----5--------|
D|------5-------7-7--7--7-7-|-9--9--9--5-----5--7-7---|
A|-5-5--5--5-5--5-5--5--5-5-|-7--7--7--3-----3--5-5---|
E|-3-3--3--3-3--------------|-------------------------|

Guitar 2
E|--3------------5------------|-3--3-----5---3--3--3--3-|-3--3-3--5--5-|
B|-----3-----3------3-------3-|-3--3-----3---3--3--3--3-|-3--3-3--3--3-|
G|--------0-------------0-----|-0--0--0--0---0--0--0--0-|-0--0-0--0--0-|
D|----------------------------|-------------------------|--------------|
A|----------------------------|-------------------------|--------------|
E|----------------------------|-------------------------|--------------|

Guitar 1
E|--------------------------|-------------------------|
B|--------------------------|----8-----5-----5--------|
G|-------------------7------|----9-----5-----5--------|
D|------5-------7-7--7--7-7-|-9--9--9--5-----5--7-7---|
A|-5-5--5--5-5--5-5--5--5-5-|-7--7--7--3-----3--5-5---|
E|-3-3--3--3-3--------------|-------------------------|

Guitar 2
E|-5--5--3--3--3--3--3-|---------------------------------------------|
B|-3--3--3--3--3--3--3-|-------5----5-----5------/15-----------------|
G|-0--0--0--0--0--0--0-|-/4----4----4---4h5--------------------------|
D|---------------------|---------------------------------------------|
A|---------------------|---------------------------------------------|
E|---------------------|---------------------------------\12---------|

Outro
E|--------------------------|----------------------|
B|--------------------------|----8-----5-----------|
G|-------------------7------|----9-----5-----------|
D|------5-------7-7--7--7-7-|-9--9--9--5-----------|
A|-5-5--5--5-5--5-5--5--5-5-|-7--7--7--3-----------|
E|-3-3--3--3-3--------------|----------------------|

Order

Intro
Verse x10
Chorus
Verse x10
Chorus
Verse x2
Solo
Chorus
Verse x3
Outro

(Lyrics)

(Verse)
I heard you crying loud - All the way across town
To be been searchin' for that someone
And it's me out of the prowl
As you sit around feeling sorry for yourself
So don't get lonely now and dry your whining eyes
I'm just roaming for the moment sleazin my backyard so don't get
So uptight you've been thinkin about ditching me

(Chorus)
No time to search the world around
Cos' you know where I'll be found
When I come around

(Verse)
I heard it all before - So don't knock down my door
I'm a loser, and a user - So I don't need no accuser
To try and slag me down because I know you're right
So go do what you like, make sure you do it wise
You may find out that your self-doubt means nothing was ever there
You can't go forcing something if it's just not right

(Chorus)
No time to search the world around
Cuz you know where I'll be found
When I come around

(Solo)

(Chorus)
No time to search the world around
Cuz you know where I'll be found
When I come around

(Verse)
When I come around
When I come around
When I come around

(Outro)

Intro
E|--------------------------------------|
B|--------------------------------------|
G|--------------------------------------|
D|-8~~---5~~----------------------------|
A|-8~~---5~~----------------------------|
E|-6~~---3~~----------------------------|

Verse
E|--------------------------------------|
B|--------------------------------------|
G|-4-x-4-x-4-4-4-4-4--------------------|
D|-4-x-4-x-4-4-4-4-4--6-x-6-x-6-6-6-6-6-|
A|-2-x-2-x-2-2-2-2-2--6-x-6-x-6-6-6-6-6-|
E|--------------------4-x-4-x-4-4-4-4-4-|

Chorus
E|------------------------------------------------------------------|
B|------------------------------------------------------------------|
G|------------------------------------------------------------------|
D|-4-4-4-4-4-4-4-4-4-4-4-4-4-4-4-4--2-2-2-2-2-2-2-2-2-2-2-2-2-2-2-2-|
A|-4-4-4-4-4-4-4-4-4-4-4-4-4-4-4-4--2-2-2-2-2-2-2-2-2-2-2-2-2-2-2-2-|
E|-2-2-2-2-2-2-2-2-2-2-2-2-2-2-2-2--0-0-0-0-0-0-0-0-0-0-0-0-0-0-0-0-|

Bridge
e|------------------------------------------------------------------------------|
B|-7--7-7--7--7--7-7---4--5-4--4--4--5-4--7--7-7--7--7--7-7---4--5-4--4--4--5-4-|
G|-8--8-8--8--8--8-8---4--4-4--4--4--4-4--8--8-8--8--8--8-8---4--4-4--4--4--4-4-|
D|-9--9-9--9--9--9-9----------------------9--9-9--9--9--9-9---------------------|
A|------------------------------------------------------------------------------|
E|------------------------------------------------------------------------------|

e|---------------------------------------------------------------------------------|
B|---------------------------------------------------------------------------------|
G|---------6--------9----------6--------9----------6--------9----------6--------9--|
D|-8--9-9----9-8-9--9--8--9-9----9-8-9--9--8--9-9----9-8-9--9--8--9-9----9-8-9--9--|
A|------------------7-------------------7-------------------7-------------------7--|
E|---------------------------------------------------------------------------------|

Outro
E|--------------------------------------|
B|--------------------------------------|
G|--------------------------------------|
D|-8~~---5#-----------------------------|
A|-8~~---5#-----------------------------|
E|-6~~---3#-----------------------------|

Order

Intro
Verse
Chorus x2
Verse x2
Chorus x2

Verse
with the bridge played behind it)

Chorus x2
with the bridge played behind it)
Verse x2
Chorus x2

(Lyrics)

(Verse 1)
Seventeen and strung out on confusion
Trapped inside a roll of disillusion

(Chorus)
I found out what it takes to be a man
Well Mom and Dad will never understand

(Verse 2)
Secrets collecting dust but never forget
Skeletons come to life in my closet

(Chorus)
I found out what it takes to be a man
Well Mom and Dad will never understand - What's happening to me

(Verse and chorus = bridge behind them both)

(Verse 3)
Seventeen and coming clean for the first time
I finally figured out myself for the first time

(Chorus)
I found out what it takes to be a man
Well Mom and Dad will never understand - What's happening to me

Intro/Verse
e|---------------|---------------|-----------------------------|
B|---------------|---------------|-----------------------------|
G|-4-4-4---------|-4-4-4---------|-4-4-4----------2-2-2--------|
D|-4-4-4-2-2-2-2-|-4-4-4-2-2-2-2-|-4-4-4-2-2-2-2--2-2-2--4-444-|
A|-2-2-2-2-2-2-2-|-2-2-2-2-2-2-2-|-2-2-2-2-2-2-2--0-0-0--4-444-|
E|-------0-0-0-0-|-------0-0-0-0-|-------0-0-0-0---------2-222-|

Chorus
e|------------------------|
B|------------------------|
G|------------------------|
D|-2-2-2-2-2--4-4-4-4-4-4-|
A|-2-2-2-2-2--4-4-4-4-4-4-|
E|-0-0-0-0-0--2-2-2-2-2-2-|

Bridge
e|-----------------------------------------------------------------|
B|-----------5---------------5---------------5---------------------|
G|-8~----6~---6-6--8~----6~---6-6--8~----6~---6-6-----8~----6~-----|
D|-9~----7~----7---9~----7~----7---9~----7~----7------9~----7~---4-|
A|-9~----7~--------9~----7~--------9~----7~-----------9~----7~---4-|
E|-7~----5~--------7~----5~--------7~----5~-----------7~----5~---2-|

End
e|-------|
B|-------|
G|-------|
D|--7----|
A|--7----|
E|--5----|

Order

Intro/Verse x3
Chorus x3
Intro/Verse x3
Chorus x3
Intro/Verse x2
Bridge
Chorus x3
Intro/Verse x2
End

(Lyrics)

(Verse)
I saw my friend the other day - And I don't know
Exactly just what he became, it doesn't show

(Chorus)
It wasn't long ago
That I was just like you
And now I think I'm sick
And I wanna' go home

(Verse)
How have I been, how have you been? - It's been so long
What have you done with all your time? - And what went wrong?

(Chorus)
I knew you back when
And you, you knew me
And now I think you're sick
And I wanna' go home

(Bridge)
Anybody ever say no?
Ever tell you that you weren't right?
Where did all the little kid go?
Did you lose it in a hateful fight?
And you know it's true

(Chorus)
It wasn't long ago
That I was just like you
And now I think I'm sick
And I wanna' go home

Verse
e|-----------------------------------------------------------------------|
B|-----------------------------------------------------------------------|
G|-----------------------------------------------------------------------|
D|-7-7-7-7--5-5-5-5--7-7-7-7--5-5-5-5--7-7-7-7--5-5-5-5--7-7-7-7--5-5-5-5|
A|-7-7-7-7--5-5-5-5--7-7-7-7--5-5-5-5--7-7-7-7--5-5-5-5--7-7-7-7--5-5-5-5|
E|-5-5-5-5--3-3-3-3--5-5-5-5--3-3-3-3--5-5-5-5--3-3-3-3--5-5-5-5--3-3-3-3|

e|-----------------------------------------------------------------------|
B|-----------------------------------------------------------------------|
G|-----------------------------------------------------------------------|
D|-7-7-7-7--5-5-5-5--7-7-7-7--5-5-5-5--7-7-7-7--5-5-5-5--7-7-7-7-7-7-7-7-|
A|-7-7-7-7--5-5-5-5--7-7-7-7--5-5-5-5--7-7-7-7--5-5-5-5--7-7-7-7-7-7-7-7-|
E|-5-5-5-5--3-3-3-3--5-5-5-5--3-3-3-3--5-5-5-5--3-3-3-3--5-5-5-5-5-5-5-5-|

Chorus
e|-----------------------------------------------------------------------|
B|-----------------------------------------------------------------------|
G|-7-7-7-7-7-7-7-7--9-9-9-9-9-9-9-9--------------------------------------|
D|-7-7-7-7-7-7-7-7--9-9-9-9-9-9-9-9--7-7-7-7--4-4-4-4--4--7-7-7-7-7-7-7-7|
A|-5-5-5-5-5-5-5-5--7-7-7-7-7-7-7-7--7-7-7-7--4-4-4-4--4--7-7-7-7-7-7-7-7|
E|-----------------------------------5-5-5-5--2-2-2-2--2--5-5-5-5-5-5-5-5|

Chorus part 2
e|------------------------------------|
B|------------------------------------|
G|------------------------------------|
D|-7-7-7-7--5-5-5-5--7-7-7-7--5-5-5-5-|
A|-7-7-7-7--5-5-5-5--7-7-7-7--5-5-5-5-|
E|-5-5-5-5--3-3-3-3--5-5-5-5--3-3-3-3-|

Interlude
e|----------------------------|
B|----------------------------|
G|----------------------------|
D|----------------------------|
A|------4-----------5---------|
E|--5-------5---3-------3-----|

Order

Verse
Chorus
Chorus part 2
Verse
Chorus
Chorus part 2 x2
Interlude x16
Chorus
Chorus part 2 x2

(Lyrics)

(Verse)
All brawn and no brains And all those nice things
You finally got what you want
Someone to look good with and light your cigarette
Is this what you really want?

(Chorus)
I figured out
What you're all about
And I don't think I like what I see
So____

(Chorus part 2)
I hope I won't be there
In the end if you come around

(Verse)
How long will he last before he's a creep in the past
And you're alone once again
Will you pop up again and be my special friend
Til' the end, and when will that be?

(Chorus)
I figured out
What you're all about
And I don't think I like what I see
So____

(Chorus part 2)
I hope I won't be there
In the end if you come around

(Interlude)
Huh

(Chorus)
I figured out
What you're all about
And I don't think I like what I see
So____

(Chorus part 2)
I hope I won't be there
In the end if you come around

Green Day F.O.D

Verse
e|----------------------------------------------|
b|-----------------------------------=----------|
g|----------------------------------------------|
d|--7-7-7-7-7-7-7--7-7-7-7-7-7-7--7-7-7-7-7-7-7-|
a|--7-7-7-7-7-7-7--7-7-7-7-7-7-7--7-7-7-7-7-7-7-|
e|--5-5-5-5-5-5-5--5-5-5-5-5-5-5--5-5-5-5-5-5-5-|
(Something's on my mind, its been so for some time)

e|-----------------------------------------------|
b|-----------------------------------------------|
g|-----------------------------------------------|
d|--5-5-5-5-5-5-5--5-5-5-5-5-5-5--5-5-5-5-5-5-5--|
a|--5-5-5-5-5-5-5--5-5-5-5-5-5-5--5-5-5-5-5-5-5--|
e|--3-3-3-3-3-3-3--3-3-3-3-3-3-3--3-3-3-3-3-3-3--|
(Its time im on to you)

Chorus
E|-------------------------------------------------------------------------------|
B|-------------------------------------------------------------------------------|
G|--9-9-9-9-------------7-7-7-7----------------9-9-9-9-----------7-7-7-7-7-7-7-7-|
D|--9-9-9-9--5-5-5-5-5--7-7-7-7--7-7-7-7-7-7---9-9-9-9--5-5-5-5--7-7-7-7-7-7-7-7-|
A|--7-7-7-7--5-5-5-5-5--5-5-5-5--7-7-7-7-7-7---7-7-7-7--5-5-5-5--5-5-5-5-5-5-5-5-|
E|-----------3-3-3-3-3-----------5-5-5-5-5-5------------3-3-3-3------------------|

Fill 1
E|-----------------------|
B|-----------------------|
G|-7-7-7-7-7-7-7-7-7-7-7-|
D|-7-7-7-7-7-7-7-7-7-7-7-|
A|-5-5-5-5-5-5-5-5-5-5-5-|
E|-----------------------|
("to say.. to say..")

Interlude
e|--------------------------|
b|--------------------------|
g|--7-7-x-------7-7-x-------|
d|--7-7-x-7-7-7-7-7-x-5-5-5-|
a|--5-5-x-7-7-7-5-5-x-5-5-5-|
e|--------5-5-5-------3-3-3-|

Order

Verse x2
Chorus
Verse x2
Chorus x2
Fill 1
Interlude x6
Chorus x2

Interlude x9
ring out last chord)

(Lyrics)

(Verse)
Something's on my mind - It's been for quite some time
This time I'm on to you
So where's the other face - the face I hurt before
Your end trip's boring me

(Chorus)
Let's nuke the bridge
We've torched 2000 times before
This time we'll blast it all to hell
I've had this burning in my guts - Now for so long
My belly's aching now to say

(Verse)
Stuck down in a rut of dis-logic and smut
A side of you well hid
When it's all said and done - It's real and it's been fun
But was it all real fun?

(Chorus)
Let's nuke the bridge
We've torched 2000 times before
This time we'll blast it all to hell
I've had this burning in my guts - Now for so long
My belly's aching now to say

(Fill 1)
To say....

(Interlude)
You're just a fuck
I can't explain it cos' I think you suck
I'm taking pride
In telling you to fuck off and die

(Chorus)
I've had this burning in my guts
Now for so long
My belly's aching now to say
I'm taking pleasure in the doubts
I've passed to you
So listen up 'cause you might miss...   sing it)

(Interlude)
You're just a fuck
I can't explain it cos' I think you suck
I'm taking pride
In telling you to fuck off and die
Good___ night

All by myself (hidden Track)

Riff 1
e|-2---2---2---2---3---3---3---3-----------------|
B|---3---3---3---3---3---3---3---3---------------|
G|-----------------0-----------------------------|
D|-0---------------------------------------------|
A|-----------------------------------------------|
E|-----------------------------------------------|

Riff 2
e|-4---4---4---4---5---5---5---5-----------------|
B|---5---5---5---5---5---5---5---5---------------|
G|-----------------------------------------------|
D|-----------------------------------------------|
A|-----------------0-----------------------------|
E|-0---------------------------------------------|

Order

Riff 1 x6
Riff 2 x4
Riff 1 x4
Riff 2 x4

(Lyrics)

(Riff 1)
I was alone
I was all by myself
No was looking
I was thinking of you
Yeah, did I mention?

(Riff 2)
I was all by myself
All by myself
All by myself
All by myself

(Riff 1)
I went to your house
But no one was there
I went in your room
I was all by myself

(Riff 2)
You and me had
Such wonderful times
When I'm all by myself
All by myself...

H = hammer-on
P = pull-off
B = bend
/ = Slide up
\ = Slide down
~ = Let ring
x = scratch

When a chord has a * underneath palm mute it.

There you go guys there is an update on my original Dookie tab, please write
comments in the comments thingy on what you think and/or which version you
prefer. Please rate this (if you already haven't)