Green Day - Holiday Acoustic Text Guitar Tab

Learn the song with the online tablature player
This is an acoustic version of Holiday that I tabbed. I know I'm missing big chunks of
song but I will add on later. Hope you enjoy it

Intro
e|---------------------------------------------------------------------2X--|
B|-------------------------------------------------------------------------|
G|-------------------------------------------------------------------------|
D|---10----10----6----6------13------13-----8-----8------------------------|
A|-8----8-----4----4-----11------11------6-----6---------------------------|
E|-------------------------------------------------------------------------|

Chorus
e|-----------------------------------------------------------------------2X--|
B|---------------------------------------------------------------------------|
G|---------------------------------------------------------------------------|
D|------------------------6----6----6-------------------8----8----8----------|
A|-3----3----3----3----4----4----4----6----6----6----6----6----6-------------|
E|-1--1----1----1------------------------4----4----4-------------------------|

Part after chorus
e|---------------------------------------------------------------------------|
B|---------------------------------------------------------------------------|
G|---------------------------------------------------------------------------|
D|---------6---8-5-----------------------------------------------------------|
A|-3-3-6-6-4-8-6-3-----------------------------------------------------------|
E|-1-1-4-4---6---------------------------------------------------------------|

| / slide up
| \ slide down
| h hammer-on
| p pull-off
| ~ vibrato
| + harmonic
| x Mute note