Green Day - Know Your Enemy Text Bass Tab

Learn the song with the online tablature player
Song's order

Riff 2
starts at 0:20)

Riff 1

Riff 2
8x

Riff 3 2x

Riff 4
Riff 5

Riff 1

Riff 2
2x

Riff 3 2x

Riff 4

Riff 2
starts at 2:36)

Riff 1

Riff 2
4x

Riff 7

Riff 1

G|--------------------------------------------------|
D|--------------------------------------------------|
A|2-2-2-----2-2-----2-2-----2-2-0-2-2-2-----2-2-----|
E|------0-0-------------0-0-------------0-0---------|

Riff 2

G|------------------|
D|------------------|
A|----------------0-|
E|2-2-2-2-2-2-2-2---|

Riff 3

G|------------------------------|
D|------------------------------|
A|--------------2---2-2-2-2-2-2-|
E|0-0-0-0-0-0-0-----------------|

Riff 4

G|------------------------------|
D|------------------------------|
A|------------0-2---2-2-2-2-2/--|
E|0-0-0-0-0-0-------------------|

Riff 5

G|------------------------------|
D|------------------------------|
A|----------------------------0-|
E|2-2-2---------------------2---|

Riff 6

G|------------------------------|
D|------------------------------|
A|------------------------------|
E|7\----------------------------|