Green Day - Shenanigans Text Guitar Tab

Learn the song with the online tablature player
1.Suffocate
2.Desensitized
3.You Lied
4.Outsider
5.Don't Wanna Fall In Love
6.Espionage
7.I want To Be On TV
8.Scumbag
9.Tired Of Waiting
 10.Sick of Me
 11.Rotting
 12.Do Da Da
 13.On The Wagon
 14.Ha Ha You're Dead

Intro
E|------------------------------------------------------------------|
B|------------------------------------------------------------------|
G|-7-7-7-7-7-7-7-7-7-7-7-7-7-7-7-7-7-7-7-7-7-7-7-7-7-7-7-7-7-7-7-7--|
D|-7-7-7-7-7-7-7-7-7-7-7-7-7-7-7-7-7-7-7-7-7-7-7-7-7-7-7-7-7-7-7-7--|
A|-5-5-5-5-5-5-5-5-5-5-5-5-5-5-5-5-5-5-5-5-5-5-5-5-5-5-5-5-5-5-5-5--|
E|------------------------------------------------------------------|

Intro fill
played by a second guitar)
E|--------------|
B|-15\14--12\10-|
G|--------------|
D|--------------|
A|--------------|
E|--------------|

Verse
comes in with the lyrics "3am im drunk again")
E|---------------------------------------------------------------------------|
B|---------------------------------------------------------------------------|
G|-7-7-7-7-7-7-7-7-7-7-7-7-7-7-7---------------------------------------------|
D|-7-7-7-7-7-7-7-7-7-7-7-7-7-7-7--5-5-5-5--7-7-7-7-7-7--5-5-5-5--7-7-7-7-7-7-|
A|-5-5-5-5-5-5-5-5-5-5-5-5-5-5-5--5-5-5-5--7-7-7-7-7-7--5-5-5-5--7-7-7-7-7-7-|
E|--------------------------------3-3-3-3--5-5-5-5-5-5--3-3-3-3--5-5-5-5-5-5-|

Pre Chorus
E|-----------------------------------------------------------------------------------|
B|-----------------------------------------------------------------------------------|
G|7-7-7-7-7-7-7-7-7-7-7-7-7-7-7-7-7-7-7-7-7-7-7-7-7-7-7-7-7-7-7-7--------------------|
D|7-7-7-7-7-7-7-7-7-7-7-7-7-7-7-7-7-7-7-7-7-7-7-7-7-7-7-7-7-7-7-7-5-5-7-7-x-5-5-5-7-7|
A|5-5-5-5-5-5-5-5-5-5-5-5-5-5-5-5-5-5-5-5-5-5-5-5-5-5-5-5-5-5-5-5-5-5-7-7-x-5-5-5-7-7|
E|----------------------------------------------------------------3-3-5-5-x-3-3-3-5-5|

Chorus
E|----------------------|----------------------|----------------------|
B|----------------------|----------------------|----------------------|
G|-7-7-7-7-7------------|-7-7-7-7-7------------|-7-7-7-7-7------------|
D|-7-7-7-7-7-5-5--7-7-7-|-7-7-7-7-7-5-5--7-7-7-|-7-7-7-7-7-5-5--7-7-7-|
A|-5-5-5-5-5-5-5--7-7-7-|-5-5-5-5-5-5-5--7-7-7-|-5-5-5-5-5-5-5--7-7-7-|
E|-----------3-3--5-5-5-|-----------3-3--5-5-5-|-----------3-3--5-5-5-|

                                    ("Suffocate, suffocate")
E|----------------------|----------------------|----------|
B|----------------------|----------------------|----------|
G|----------7-7---------|----------7-7---------|----------|
D|-5-5-5-5--7-7-7-7-7-7-|-5-5-5-5--7-7-7-7-7-7-|-5-5-7----|
A|-5-5-5-5--5-5-7-7-7-7-|-5-5-5-5--5-5-7-7-7-7-|-5-5-7----|
E|-3-3-3-3------5-5-5-5-|-3-3-3-3------5-5-5-5-|-3-3-5----|

Post Chorus ("suffocate, suffocate")
E|----------------------|----------------------|
B|----------------------|----------------------|
G|----------7-7---------|----------7-7---------|
D|-5-5-5-5--7-7-7-7-7-7-|-5-5-5-5--7-7-7-7-7-7-|
A|-5-5-5-5--5-5-7-7-7-7-|-5-5-5-5--5-5-7-7-7-7-|
E|-3-3-3-3------5-5-5-5-|-3-3-3-3------5-5-5-5-|

Interlude
E|--------------------|--------------------|
B|--------------------|--------------------|
G|---xxxx--7----------|---xxxx--7----------|
D|-5-xxxx--7-7-xxxx---|-5-xxxx--7-7-xxxx---|
A|-5-xxxx--5-7-xxxx---|-5-xxxx--5-7-xxxx---|
E|-3---------5-xxxx---|-3---------5-xxxx---|

Interlude part 2
E|-------------|---------------|----------------------------------|
B|-------------|---------------|----------------------------------|
G|-7-----------|-----7-7-7-7-7-|-7------------7-------------------|
D|-7-7-5-5-5-5-|-5-7-7-7-7-7-7-|-7-7-5-5-5-5--7-7-5-5-5-5-5-5-5-5-|
A|-5-5-5-5-5-5-|-5-7-5-5-5-5-5-|-5-7-5-5-5-5--5-7-5-5-5-5-5-5-5-5-|
E|---5-3-3-3-3-|-3-7-----------|---5-3-3-3-3----5-3-3-3-3-3-3-3-3-|

Outro
E|--------------|--------------|--------------|-----------------|
B|--------------|--------------|--------------|-----------------|
G|--------7-7---|--------7-7---|--------7-7---|--------7-7------|
D|-5~-----7-7-7-|-5~-----7-7-7-|-5~-----7-7-7-|-5~-----7-7-7~~--|
A|-5~-----5-5-7-|-5~-----5-5-7-|-5~-----5-5-7-|-5~-----5-5-7~~--|
E|-3~---------5-|-3~---------5-|-3~---------5-|-3~---------5~~--|

Order

Intro
Verse x2
Pre Chorus x2
Chorus
Post Chorus
Verse x2
Pre Chorus x2
Chorus
Post Chorus
Interlude x2
Interlude part 2
Chorus
Post Chorus x2
Outro

Lyrics

(Verse)
3am im drunk again, my head is spinning round, I need my fumes
So make a stop - im getting off
Make a stop - im getting off
(?????) and dizzy spells, im spilling my guts out, Its not what I need
So make a stop - im getting off
Make a stop - im getting off

(Pre Chorus)
Slipped into a coma once again
Where's my organ donor, land a hand

(Chorus)
So when you think you're all alone
Now one's out to come around
Drop like flies and apathies
And I know your love 'll suffocate
And I know your love 'll suffocate

(Post Chorus)
Suffocate, suffocate

(Verse)
One-night stands and cheap regrets I take another drag, im on my sugar
So make a stop - im getting off
Make a stop - im getting off
One last stop for a one-track mind - just give me shelter, give me, give me something
Make a stop - im getting off
Make a stop - im getting off a

(Chorus)
So when you think you're all alone
Now one's out to come around
Drop like flies and apathies
And I know your love 'll some day
And I know your love 'll suffocate

(Post Chorus)
Suffocate, suffocate

(interludes- no lyrics)

(Chorus)
So when you think you're all alone
Now one's out to come around
Drop like flies and apathies
And I know your love 'll some day
And I know your love 'll suffocate
And I know your love 'll some day
And I know your love 'll suffocate

(Post Chorus)
Suffocate, suffocate, suffocate

(Outro)

This song kicks ass!

(Starts with alarm clock ringing and things being smashed up, with some shouting)

Intro/verse
E|-------------------|
B|-------------------|
G|--------5--5--5----|
D|-5-5-5--5--5--5-5--|
A|-5-5-5--3--3--3-5--|
E|-3-3-3----------3--|

Pre Chorus
E|----------------------------------------------------------------------------------|
B|----------------------------------------------------------------------------------|
G|----------------------------------------------------------------------------------|
D|2-2-2-2-2-2-2-2-2-2--5-5-5-5-5-5-5-5-5-5--2-2-2-2-2-2-2-2-2-2--5-5-5-5-5-5-5-5-5-5|
A|2-2-2-2-2-2-2-2-2-2--5-5-5-5-5-5-5-5-5-5--2-2-2-2-2-2-2-2-2-2--5-5-5-5-5-5-5-5-5-5|
E|0-0-0-0-0-0-0-0-0-0--3-3-3-3-3-3-3-3-3-3--0-0-0-0-0-0-0-0-0-0--3-3-3-3-3-3-3-3-3-3|

Chorus
E|------------------------------------------------------------------------------|
B|------------------------------------------------------------------------------|
G|2-2-2-2--------------2-2-2-2--------------5-5-5-5-----------------------------|
D|2-2-2-2-3-3-3-3-3-3--2-2-2-2-3-3-3-3-3-3--5-5-5-5-5-5-5-5--3-3-3-3-3-3-3-3-3-3|
A|0-0-0-0-3-3-3-3-3-3--0-0-0-0-3-3-3-3-3-3--3-3-3-3-5-5-5-5--3-3-3-3-3-3-3-3-3-3|
E|--------1-1-1-1-1-1----------1-1-1-1-1-1----------3-3-3-3--1-1-1-1-1-1-1-1-1-1|

Interlude
E|-------------------------------|
B|-------------------------------|
G|--------5-5-5------------------|
D|-5-5-5--5-5-5--5-5-5-5-5-5-5-5-|
A|-5-5-5--3-3-3--5-5-5-5-5-5-5-5-|
E|-3-3-3---------3-3-3-3-3-3-3-3-|

Outro fill
harmonic)
E|---------|
B|----12---|
G|----12---|
D|----12---|
A|---------|
E|---------|

Order

Intro/verse x8
Pre Chorus
Chorus
Verse x6
Scratch ead strings

Verse x4
with guitar 2 palm muting |355xxx| a few times in the background)
Pre Chorus
Chorus
Interlude x6
Pre Chorus
Chorus
Verse x2
Outro fill
Verse x2

Lyrics

(Intro/verse)
Jimmy dean died
Head is like a sponge
Give it to me free

(Pre Chorus)
I wanna' get ripped off
And drown In the airwaves
Another fatal wreck
On the Information highway

(Chorus)
So go ahead and kill yourselves
It all amuses me
For I'll be damned to spend
My life in hell
Another wise ingrate

(Verse)
Bring me blood and pain
Of a stranger's fate
Give it all away
I'm Desensitized
I wanna' watch the bomb
Blow the masses high

(Pre Chorus)
I wanna' get ripped off
And drown I the airwaves
Another fatal wreck
On the Information highway

(Chorus)
So go ahead and kill yourselves
It all amuses me
For I'll be damned to spend
My life in hell
Another wise ingrate

(Interlude)
Bring me blood and pain
Of a stranger's fate
Give it all away

(Pre Chorus)
I wanna' get ripped off
And drown I the airwaves
Another fatal wreck
On the Information highway

(Chorus)
So go ahead and kill yourselves
It all amuses me
For I'll be damned to spend
My life in hell
Another wise ingrate

Intro
E|--------------------|--------------------|--------------------------------|
B|--------------------|--------------------|--------------------------------|
G|--------------------|--------------------|--------------------------------|
D|-6-/7-7-7-7-7-7-7-7-|-6-/7-7-7-7-7-7-7-7-|-6-/7-7-7-7-7-7-7-7-------------|
A|-6-/7-7-7-7-7-7-7-7-|-6-/7-7-7-7-7-7-7-7-|-6-/7-7-7-7-7-7-7-7-------------|
E|-4-/5-5-5-5-5-5-5-5-|-4-/5-5-5-5-5-5-5-5-|-4-/5-5-5-5-5-5-5-5-------------|

Verse
E|---------|   |---------|   |----------|-------------------|
B|---------|   |---------|   |----------|-------------------|
G|---------|   |---------|   |----------|-------------------|
D|3/4-4-4-4|x2 |6/7-7-7-7|x4 |3/4-4-4-4-|-3/4-4-4-4-4-4-4-4-|
A|3/4-4-4-4|   |6/7-7-7-7|   |3/4-4-4-4-|-3/4-4-4-4-4-4-4-4-|
E|1/2-2-2-2|   |4/5-5-5-5|   |1/2-2-2-2-|-1/2-2-2-2-2-2-2-2-|

Chorus
E|---------------------------------------------|
B|---------------------------------------------|
G|-9-9-9-9--7-7-7-7-7-7---9-9-9-9--7-7-7-7-7-7-|
D|-9-9-9-9--7-7-7-7-7-7---9-9-9-9--7-7-7-7-7-7-|
A|-7-7-7-7--5-5-5-5-5-5---7-7-7-7--5-5-5-5-5-5-|
E|---------------------------------------------|

Verse 2
E|---------|------------|------------|------------|------------|------------|
B|---------|------------|------------|------------|------------|------------|
G|---------|------------|------------|------------|------------|------------|
D|-7-7-7-7-|-6-/7-7-7-7-|-6-/7-7-7-7-|-6-/7-7-7-7-|-6-/7-7-7-7-|-6-/7-7-7-7-|
A|-7-7-7-7-|-6-/7-7-7-7-|-6-/7-7-7-7-|-6-/7-7-7-7-|-6-/7-7-7-7-|-6-/7-7-7-7-|
E|-5-5-5-5-|-4-/5-5-5-5-|-4-/5-5-5-5-|-4-/5-5-5-5-|-4-/5-5-5-5-|-4-/5-5-5-5-|

E|---------|   |---------|   |----------|-------------------|
B|---------|   |---------|   |----------|-------------------|
G|---------|   |---------|   |----------|-------------------|
D|3/4-4-4-4|x2 |6/7-7-7-7|x4 |3/4-4-4-4-|-3/4-4-4-4-4-4-4-4-|
A|3/4-4-4-4|   |6/7-7-7-7|   |3/4-4-4-4-|-3/4-4-4-4-4-4-4-4-|
E|1/2-2-2-2|   |4/5-5-5-5|   |1/2-2-2-2-|-1/2-2-2-2-2-2-2-2-|

Pre Solo
this is also the rhythm to the solo)
E|---------|------------|------------|
B|---------|------------|------------|
G|---------|------------|------------|
D|-7-7-7-7-|-6-/7-7-7-7-|-6-/7-7-7-7-|
A|-7-7-7-7-|-6-/7-7-7-7-|-6-/7-7-7-7-|
E|-5-5-5-5-|-4-/5-5-5-5-|-4-/5-5-5-5-|

Solo
E|-----------|---------5-|------------|-----------|----------5-|-----------|
B|-----2-5-2-|-----2-5---|------------|-----2-5-2-|-----2-5----|-----------|
G|-2/3-------|-2/3-------|------3-6-3-|-2/3-------|-2/3--------|-----3-6-3-|
D|-----------|-----------|-4/5--------|-----------|------------|-4/5-------|
A|-----------|-----------|------------|-----------|------------|-----------|
E|-----------|-----------|------------|-----------|------------|-----------|

Outro
Guitar 1                               |clean|
E|---------|------------|   |----------|-----|
B|---------|------------|   |----------|-----|
G|---------|------------|   |----------|-6---|
D|-7-7-7-7-|-6-/7-7-7-7-|x5 |-7-7-7-7--|-7---|
A|-7-7-7-7-|-6-/7-7-7-7-|   |-7-7-7-7--|-7---|
E|-5-5-5-5-|-4-/5-5-5-5-|   |-5-5-5-5--|-5---|

Guitar 2
E|-2------2---------|---2------2-----|
B|---5-2----5----2--|-5---5-2----5-2-|
G|------------------|----------------|
D|------------------|----------------|
A|------------------|----------------|
E|------------------|----------------|

Order

Intro
Verse
Chorus x2
Verse 2
Chorus x2
Pre Solo
Solo
Chorus x2
Outro

Lyrics

(Intro)
You got a problem you just can't hide
Compulsive habits that just don't seem to die

(Verse)
Your breath is stinking up all the air
Your teeth are rotting 2 black holes in your head

(Chorus)
Well reality is due
What you say just can't be true
Your story's stretched
A toe far-fetched
And you're lacking an excuse
You lied

(Verse 2)
You mom allowed you just one white lie
But now she thinkin' she left you with a problem
Pinnochio has bit your tongue
Your nose is growing into the 3rd dimension

(Chorus)
Well reality is due
What you say just can't be true
Your story's stretched
A toe far-fetched
And you're lacking an excuse
You lied

(Solo)

(Chorus)
Well reality is due
What you say just can't be true
Your story's stretched
A toe far-fetched
And you're lacking an excuse
You lied

things in brackets played by bass

Verse
E|---------------------------------------------------------------|
B|---------------------------------------------------------------|
G|---------------------------------------------------------------|
D|-7-7-7-7-7-7-7-7-7-7-7-7--5-5-5-5-5-5-5-5-5-5-5-5--------------|
A|-7-7-7-7-7-7-7-7-7-7-7-7--5-5-5-5-5-5-5-5-5-5-5-5--------------|
E|-5-5-5-5-5-5-5-5-5-5-5-5--3-3-3-3-3-3-3-3-3-3-3-3—(3-3-5-5-7-5)|

Chorus
E|---------------------------------|---------------------------------|
B|---------------------------------|---------------------------------|
G|-------------------------------7-|-------------------------------7-|
D|-5-5-5-5-5-5-5-5-5-5-5-5--7-7--7-|-5-5-5-5-5-5-5-5-5-5-5-5--7-7--7-|
A|-5-5-5-5-5-5-5-5-5-5-5-5--7-7--5-|-5-5-5-5-5-5-5-5-5-5-5-5--7-7--5-|
E|-3-3-3-3-3-3-3-3-3-3-3-3--5-5----|-3-3-3-3-3-3-3-3-3-3-3-3--5-5----|

Solo
sorry I clouldnt get it cos' I cant her it properly its played
       Real quiet in the background, but here is the rhythm to it.
E|------------------------------------------|-----------------------------------|
B|------------------------------------------|-----------------------------------|
G|-6-6-6-6----------------------------------|-6-6-6-6---------------------------|
D|-6-6-6-6--6-6-6-6-6-6-4-4-4-4-4-4-4-4-4-4-|-6-6-6-6--6-6-6-6-6-6--9-9-9-9-9-9-|
A|-4-4-4-4--6-6-6-6-6-6-4-4-4-4-4-4-4-4-4-4-|-4-4-4-4--6-6-6-6-6-6--9-9-9-9-9-9-|
E|----------4-4-4-4-4-4-2-2-2-2-2-2-2-2-2-2-|----------4-4-4-4-4-4--7-7-7-7-7-7-|

E|------------------------------------------------------------|
B|------------------------------------------------------------|
G|------------------------------------------------------------|
D|-9-9-9-9----------------------------------------------------|
A|-9-9-9-9----------------------------------------------------|
E|-7-7-7-7----------------------------------------------------|

Order

Verse x4
Chorus
Verse x4
Chorus x4
Solo x2
Chorus x2
Verse x4
Chorus x1 and a half

Lyrics

(Verse)
Im an outsider, outside of everything
Im an outsider, outside of everything
Im an outsider, outside of everything
Everything in the world, everything in the world
That concerns my so

(Chorus - no lyrics)

(Verse)
Im an outsider, outside of everything
Im an outsider, outside of everything
Im an outsider, outside of everything
Everything in the world, everything in the world
That concerns my so

(Chorus)
Everybody's gotta push me, push me around
Everybody try to put me, try put me down

(Solo)
Understood every word, ive already had all my fun
More troubles are gonna come, ive already had all my fun
Oh yea yea yeah,

(Chorus)
Everybody's gotta push me, push me around
Everybody try to put me, try put me down

(Verse)
Im an outsider, outside of everything
Im an outsider, outside of everything
Im an outsider, outside of everything
Everything in the world, everything in the world
That concerns my so

Green Day Don't wanna fall in love

Main Riff        (strum this down up, down up, down up. Etc.)
e|-----------------------------------------------------------------------|
B|-----------------------------------------------------------------------|
G|-8-8-8-8-8-x-x-8-8-----------------------------------------------------|
D|-8-8-8-8-8-x-x-8-8-----------------------------------------------------|
A|-6-6-6-6-6-x-x-6-6-----------------------------------------------------|
E|-----------------------------------------------------------------------|

Riff 2
e|-----------------------------------------------------------------------|
B|-----------------------------------------------------------------------|
G|-----------------------------------------------------------------------|
D|-6-6-6-6-6-6-6-6-6-----------------------------------------------------|
A|-6-6-6-6-6-6-6-6-6-----------------------------------------------------|
E|-4-4-4-4-4-4-4-4-4-----------------------------------------------------|

Chorus
e|-----------------------------------------------------------------------|
B|-----------------------------------------------------------------------|
G|--------------------8--------------------------------------------------|
D|-6-6-6-6-6-6-6-6-6--8--------------------------------------------------|
A|-6-6-6-6-6-6-6-6-6--6--------------------------------------------------|
E|-4-4-4-4-4-4-4-4-4-----------------------------------------------------|

Solo
e|-----------------------------------------------------------------------------|
B|------1---------------1-----------------1--------------1------------1--------|
G|3-3-3---3-3-0---3-3-3---3-0---3-3-3-3-3---3-3-0--3-3-3---3-0--3-3-3---3-0--3-|
D|-----------------------------------------------------------------------------|
A|-----------------------------------------------------------------------------|
E|-----------------------------------------------------------------------------|

e|-------------2-1----------------------------15-14-12-4/11--------------|
B|--------1-4------4--1--------------------------------------------------|
G|-1-1-1-----------------3----8-8-8-8-8-x-8-8----------------------------|
D|----------------------------8-8-8-8-8-x-8-8----------------------------|
A|----------------------------6-6-6-6-6-x-6-6----------------------------|
E|-----------------------------------------------------------------------|

Outro
e|-----------------------------------------------------------------------|
B|-----------------------------------------------------------------------|
G|--------------------8-8-8-8--------------------------------------------|
D|-6-6-6-6-6-6-6-6-6--8-8-8-8--6-8---------------------------------------|
A|-6-6-6-6-6-6-6-6-6--6-6-6-6--6-8---------------------------------------|
E|-4-4-4-4-4-4-4-4-4-----------4-6---------------------------------------|

Order

Main Riff x12 (when on the 11th and 12th repeat miss out the scratch)
Riff 2
Main Riff x2
Chorus
Main Riff x10 (when on the 9th and 10th repeat miss out the scratch)
Riff 2
Main Riff x2
Chorus
Main Riff x3

Solo
with a 2nd guitar playing the Main riff x7, then part.2 the main riff x2)
Chorus
Main Riff x2
Chorus
Main Riff x2
Outro
Main Riff x4

Lyrics

(Verse main riff)
Don't want to have you hanging
Around here like a leech
I think you're just a problem
So stay the hell away from me
Because I don't believe in you

(Riff 2)
And I wanna sit here all my life alone

(Chorus)
This may sound a little ruff, don't wanna fall in Love

(Verse 2. main riff)
Don't need some charity
I Ain't not dog to find a bone
Don't have no time for love
So stay the fuck away from me
Cos I don't believe in you

(Riff 2)
And I wanna sit here all my life alone

(Chorus)
This may sound a little ruff, don't wanna fall in Love

(Solo)

(Chorus)
This may sound a little ruff, don't wanna fall in Love

(Chorus)
This may sound a little ruff, don't wanna fall in Love

(Outro)
This may sound a little fucked, don't wanna fall in Love

Intro
e|-0----------------------------------------------------------------------------|
B|-0----------------------------------------------------------------------------|
G|-0----------------------------------------------------------------------------|
D|-2----------------------------------------------------------------------------|
A|-2----------------------------------------------------------------------------|
E|-0----------------------------------------------------------------------------|

Riff 1
e|------------------------------------------------------------------------------|
B|------------------------------------------------------------------------------|
G|------------------------------------------------------------------------------|
D|------------------------------------------------------------------------------|
A|----------2-2----1-1--0----0-0------------------------------------------------|
E|-0-0--3-3-----3---------3------3-2-1------------------------------------------|

Riff 2
e|------------------------------------------------------------------------------|
B|------------------------------------------------------------------------------|
G|------------------------------------------------------------------------------|
D|----------2-2----1-1--0----0-0------------------------------------------------|
A|-0-0--3-3-----3---------3------3-2-1------------------------------------------|
E|------------------------------------------------------------------------------|

Riff 3
e|------------------------------------------------------------------------------|
B|------------------------------------------------------------------------------|
G|------------------------------------------------------------------------------|
D|-9-9-9-9-9--10-10-10-10-10---9-9-9-9-9--10-10-10-10-10--9-9-9-9-9--9-9-9-9-9--|
A|-9-9-9-9-9--10-10-10-10-10---9-9-9-9-9--10-10-10-10-10--9-9-9-9-9--9-9-9-9-9--|
E|-7-7-7-7-7---8--8--8--8--8---7-7-7-7-7---8--8--8--8--8--7-7-7-7-7--7-7-7-7-7--|

e|------------------------------------------------------------------------------|
B|------------------------------------------------------------------------------|
G|----------------------------9-9-9-9-9-9-9-9-----------------------------------|
D|--10-10-10-10-10-10-10-10---9-9-9-9-9-9-9-9-----------------------------------|
A|--10-10-10-10-10-10-10-10---7-7-7-7-7-7-7-7-----------------------------------|
E|---8--8--8--8--8--8--8--8-----------------------------------------------------|

Riff 4
e|------------------------------------------------------------------------------|
B|------------------------------------------------------------------------------|
G|------------------------------------------------------------------------------|
D|-9-9-9-9-9--10-10-10-10-10---9-9-9-9-9--10-10-10-10-10--9-9-9-9-9--9-9-9-9-9--|
A|-9-9-9-9-9--10-10-10-10-10---9-9-9-9-9--10-10-10-10-10--9-9-9-9-9--9-9-9-9-9--|
E|-7-7-7-7-7---8--8--8--8--8---7-7-7-7-7---8--8--8--8--8--7-7-7-7-7--7-7-7-7-7--|

e|----------------------------------------------0-------------------------------|
B|----------------------------------------------0-------------------------------|
G|----------------------------9-9-9-9-9-9-9-9---0-------------------------------|
D|--10-10-10-10-10-10-10-10---9-9-9-9-9-9-9-9---2-------------------------------|
A|--10-10-10-10-10-10-10-10---7-7-7-7-7-7-7-7---2-------------------------------|
E|---8--8--8--8--8--8--8--8---------------------0-------------------------------|

Order
Intro  x1
Riff 1 x6
Riff 2 x2
Riff 1 x2
Riff 3 x1
Riff 1 x4
Riff 2 x2
Riff 1 x2
Riff 3 x1
Riff 1 x4
Riff 2 x2
Riff 1 x2
Riff 4 x1
Riff 1 x4
Riff 2 x2
Riff 1 x2
Riff 4 x1

Intro/verse
E|------------------------------------------------------------|
B|------------------------------------------------------------|
G|-5-5-5-5-5-x-x-5-3--5-5-5-5-5-x-x-5-3-----------------------|
D|-5-5-5-5-5-x-x-5-3--5-5-5-5-5-x-x-5-3-----------------------|
A|-3-3-3-3-3-x-x-3-1--3-3-3-3-3-x-x-3-1-----------------------|
E|------------------------------------------------------------|

Chorus
E|------------------------------------------------------------|
B|------------------------------------------------------------|
G|-3-3-3-3--5-5-5-5-5--6-6-6-6-6--7-7-7-8-8-8-----------------|
D|-3-3-3-3--5-5-5-5-5--6-6-6-6-6--7-7-7-8-8-8-----------------|
A|-1-1-1-1--3-3-3-3-3--4-4-4-4-4--5-5-5-6-6-6-----------------|
E|------------------------------------------------------------|

End
E|------------------------------------------------------------|
B|------------------------------------------------------------|
G|-6~~--------------------------------------------------------|
D|-5~~--------------------------------------------------------|
A|-3~~--------------------------------------------------------|
E|------------------------------------------------------------|

Order

Intro/verse x4
Chorus x2
Verse x2
Chorus x2
Verse x2
Chorus x2
Verse x2
End

Lyrics (sorry about the lyrics, they suck I know but its better than nuthin)

(Intro/verse)
Wanna be a pretty boy
Wanna go on (??????)
Wanna date a millionaire
Wanna be (?????)

(Chorus)
I wanna be on T.V, want people to know me
I wanna be on T.V

(Verse)
Studio 54, gonna be down on the floor
Wanna make people dance
Gonna take off my pants

(Chorus)
I wanna be on T.V, want people to know me
I wanna be on T.V

(Verse)
(??????????????????????)
(??????????????????????)
Wanna wear my Calvin kliens
Underwear will be mine

(Chorus)
I wanna be on T.V, want people to know me
I wanna be on T.V

Verse
E|-----------------------------------------------------------------|
B|-----------------------------------------------------------------|
G|-------4--4-4-4-4-4-4-4-4-4-4---------4--4-4-4-4-4-4-4-4-4-4-4-4-|
D|-2-4-2-4--4-4-4-4-4-4-4-4-4-4---2-4-2-4--4-4-4-4-4-4-4-4-4-4-4-4-|
A|-2-4-2-2--2-2-2-2-2-2-2-2-2-2---2-4-2-2--2-2-2-2-2-2-2-2-2-2-2-2-|
E|-0-2-0--------------------------0-2-0----------------------------|

E|-----------------------------------------------------------------|
B|-----------------------------------------------------------------|
G|-----------------------------------------------------------------|
D|-2-4-2--2-2-2-2-2-2-2-2-2-2-2-2---2-4-2--2-2-2-2-2-2-2-2-2-2-2-2-|
A|-2-4-2--2-2-2-2-2-2-2-2-2-2-2-2---2-4-2--2-2-2-2-2-2-2-2-2-2-2-2-|
E|-0-2-0--0-0-0-0-0-0-0-0-0-0-0-0---0-2-0--0-0-0-0-0-0-0-0-0-0-0-0-|

Chorus
E|------------------------------------------------------------------------|
B|------------------------------------------------------------------------|
G|---------------------------------4-4-4-4-4-4-4-4-4-4-4-4----------------|
D|-2-4-2--6-6-6-6-6-6-6-6-6-6-6-6--4-4-4-4-4-4-4-4-4-4-4-4--6-6-6-6-6-6-6-|
A|-2-4-2--6-6-6-6-6-6-6-6-6-6-6-6--2-2-2-2-2-2-2-2-2-2-2-2--6-6-6-6-6-6-6-|
E|-0-2-0--4-4-4-4-4-4-4-4-4-4-4-4---------------------------4-4-4-4-4-4-4-|

E|------------------------------------------------------------|
B|------------------------------------------------------------|
G|------------------------------------------------------------|
D|-6-6-6-6-6--4-4-4-4-4---------------------------------------|
A|-6-6-6-6-6--4-4-4-4-4---------------------------------------|
E|-4-4-4-4-4--2-2-2-2-2---------------------------------------|

Solo
with guitar 2 playing verse x2 in the background)
E|------------------------------------------------------------|
B|------------------------------------------------------------|
G|-----------------------------------------------------11-11--|
D|-13-13-11-13--13-11-13-11------13-13-11-13--13-11-13--------|
A|--------------------------14~~------------------------------|
E|------------------------------------------------------------|

E|-----------------------------------------------------------------|
B|-----------------------------------------------------------------|
G|-9-9-9-9-8-8-8-8-6-6-6-6---------9-9-9-9-8-8-8-8-6-6-6-6---------|
D|-------------------------9-9-9-9-------------------------9-9-9-9-|
A|-----------------------------------------------------------------|
E|-----------------------------------------------------------------|

Order

Verse x2
Chorus
Verse x2
Chorus
Solo x2
Chorus

Lyrics

(Verse)
You come around every now and then
You look so different but you're still the same
Why else would you come here - Scumbag on a mission
You're telling me that it's been a while
(??????????) And a brand new life
Somebody let you come here - Scumbag with permission

(Chorus)
Never thought I'd see the likes of you round this place
Whats the special occasion did you run of out friends

(Verse)
Here you are coming right again, and things are
Different but you still pretend
You've got a reason to come here - scumbag with ambition
Now you tell me that things have changed
And you'll be leaving in a couple days
Your gonna change the world someday - scumbag with a vision

(Chorus)
It must be nice to know you got it all figured out
But from where im sitting - it's the same thing again and again

(Solo - no lyrics)

(Chorus)
You never stopped to think before you opened up your mouth
Cos' every time you do - it's the same thing again and again

Sorry I couldn't work this out and I was gonna put some one else' in here but none of
them sound right if any ones got it could you please email it to me, thanks!

Verse
E|------------------------------------------------------------|
B|------------------------------------------------------------|
G|--------------------------5-5-------------------------------|
D|-5-5-5-5-5-5-5-5-5-5-5-5--5-5--3-5-5-5-5-5-5-5--------------|
A|-5-5-5-5-5-5-5-5-5-5-5-5--3-3--3-5-5-5-5-5-5-5--------------|
E|-3-3-3-3-3-3-3-3-3-3-3-3-------1-3-3-3-3-3-3-3--------------|

Chorus
E|----------------------------------------------------------------------|
B|----------------------------------------------------------------------|
G|-5-5-5-5---------------5-5---5-5-7--5-5-5-5---------------5-5---5-5-7-|
D|-5-5-5-5--5-5-5-5-5-5--5-5-5-5-5-7--5-5-5-5--5-5-5-5-5-5--5-5-5-5-5-7-|
A|-3-3-3-3--5-5-5-5-5-5--3-3-5-3-3-5--3-3-3-3--5-5-5-5-5-5--3-3-5-3-3-5-|
E|----------3-3-3-3-3-3------3-----------------3-3-3-3-3-3------3-------|

E|------------------------------------------------------------|
B|------------------------------------------------------------|
G|-7-7-7-7-7-7-7-7--------------------------------------------|
D|-7-7-7-7-7-7-7-7--------------------------------------------|
A|-5-5-5-5-5-5-5-5--------------------------------------------|
E|------------------------------------------------------------|

Interlude
E|------------------------------------------------------------|
B|------------------------------------------------------------|
G|-5-5/7-7-7-7-7-7-7-7-7-7-7-7-7-7-7-7------------------------|
D|-5-5/7-7-7-7-7-7-7-7-7-7-7-7-7-7-7-7------------------------|
A|-3-3/5-5-5-5-5-5-5-5-5-5-5-5-5-5-5-5------------------------|
E|------------------------------------------------------------|

Order

Verse x4
Chorus
Verse x4
Chorus
Interlude x4
Verse x4
Chorus
Interlude x4

Lyrics

(Verse)
Why cant you just admit it, you've had it, you're sick of me
Your fed up with all my bad habits, you're sick of me
Telling lies you become so desensitised, sick of me
Lots of regrets I can see that you've had a few, sick of me

(Chorus)
Walking out of the door - I am on to you
Coming back for more - Am I losing you?

(Verse)
Like a dog that just pissed on your barbecue, sick of me
Losing faith and you still don't know what to do, sick of me
Lots of love - now you hate everything, sick of me
It's a waste but we still keep on trying, you're sick of me

(Chorus)
Walking out of the door - I am on to you
Coming back for more - Am I losing you?

(Interlude)
Say you got your problems
Say you've got your rage
Do you have a conscience?
Do you have a (????) now im sick of you too

(Verse - with no lyrics)

(Chorus)
Walking out of the door - I am on to you
Coming back for more - Am I losing you?

Intro/verse
Guitar 1
E|-0-0-0-0-0-0-0-0--3-3-3-3-3-3-3-3--0-0-0-0-0-0-0-0--0-0-0-0-0-0-0-0-|
B|-1-1-1-1-1-1-1-1--3-3-3-3-3-3-3-3--1-1-1-1-1-1-1-1--1-1-1-1-1-1-1-1-|
G|-0-0-0-0-0-0-0-0--0-0-0-0-0-0-0-0--2-2-2-2-2-2-2-2--0-0-0-0-0-0-0-0-|
D|-2-2-2-2-2-2-2-2--0-0-0-0-0-0-0-0--3-3-3-3-3-3-3-3--2-2-2-2-2-2-2-2-|
A|-3-3-3-3-3-3-3-3--2-2-2-2-2-2-2-2-------------------3-3-3-3-3-3-3-3-|
E|------------------3-3-3-3-3-3-3-3-----------------------------------|

Guitar 2
E|---------12-------10----7-----------------5----8---------------12---|
B|-----13----------------------8------6---------------------13--------|
G|-12--------------------------------------------------12-------------|
D|--------------------------------------------------------------------|
A|--------------------------------------------------------------------|
E|-------------------------------------------------------------------|

Guitar 1
E|-0-0-0-0-0-0-0-0--0-0-0-0-0-0-0-0--0-0-0-0-0-0-0-0--3-3-3-3-3-3-3-3-|
B|-1-1-1-1-1-1-1-1--1-1-1-1-1-1-1-1--1-1-1-1-1-1-1-1--3-3-3-3-3-3-3-3-|
G|-2-2-2-2-2-2-2-2--2-2-2-2-2-2-2-2--0-0-0-0-0-0-0-0--0-0-0-0-0-0-0-0-|
D|-3-3-3-3-3-3-3-3--3-3-3-3-3-3-3-3--2-2-2-2-2-2-2-2--0-0-0-0-0-0-0-0-|
A|-----------------------------------3-3-3-3-3-3-3-3--2-2-2-2-2-2-2-2-|
E|----------------------------------------------------3-3-3-3-3-3-3-3-|

Guitar 2
e|---------------------------------------------12-----12--------------|
B|------10---13------------10---13---------13---------12--------------|
G|--10----------------10---------------12-------------12--------------|
D|----------------------------------------------------12--------------|
A|--------------------------------------------------------------------|
E|--------------------------------------------------------------------|

Chorus part 1
Guitar1
E|---------------------------------|
B|---------------------------------|
G|-----------------5-5-5-5-5-5-5-5-|
D|-6-6-6-6-6-6-6-6-5-5-5-5-5-5-5-5-|
A|-6-6-6-6-6-6-6-6-3-3-3-3-3-3-3-3-|
E|-4-4-4-4-4-4-4-4-----------------|

Guitar 2
E|---------------------------------|
B|---------------------------------|
G|---------------------------------|
D|---------------------------------|
A|-----------3---3---0-------------|
E|-----------------------3---------|

Chorus part 2
Guitar 1
E|-------------------------------------------------|
B|-------------------------------------------------|
G|-------------------------------------------------|
D|-6-6-6-6-6-6-6-6-5-5-5-5-5-5-5-5-5-5-5-5-5-5-5-5-|
A|-6-6-6-6-6-6-6-6-5-5-5-5-5-5-5-5-5-5-5-5-5-5-5-5-|
E|-4-4-4-4-4-4-4-4-3-3-3-3-3-3-3-3-3-3-3-3-3-3-3-3-|

Guitar 2
E|-------------------------------------------------|
B|-4~~-------------6~~-----------------------------|
G|-5~~-------------7~~-----------------------------|
D|-5~~-------------7~~-----------------------------|
A|-3~~-------------5~~-----------------------------|
E|-------------------------------------------------|

Outro
Guitar 1
E|-0-0-0-0-0-0-0-0--0-0-0-0-0-0-0-0--0-0-0-0-0-0-0-0--3-3-3-3-3-3-3-3-|
B|-1-1-1-1-1-1-1-1--1-1-1-1-1-1-1-1--1-1-1-1-1-1-1-1--3-3-3-3-3-3-3-3-|
G|-2-2-2-2-2-2-2-2--2-2-2-2-2-2-2-2--0-0-0-0-0-0-0-0--0-0-0-0-0-0-0-0-|
D|-3-3-3-3-3-3-3-3--3-3-3-3-3-3-3-3--2-2-2-2-2-2-2-2--0-0-0-0-0-0-0-0-|
A|-----------------------------------3-3-3-3-3-3-3-3--2-2-2-2-2-2-2-2-|
E|----------------------------------------------------3-3-3-3-3-3-3-3-|

Guitar 2
e|---------------------------------------------12-----12--------------|
B|------10---13------------10---13---------13---------12--------------|
G|--10----------------10---------------12-------------12--------------|
D|----------------------------------------------------12--------------|
A|--------------------------------------------------------------------|
E|--------------------------------------------------------------------|

Guitar 1
E|-0--0---0~~--|
B|-1--1---1~~--|
G|-2--2---0~~--|
D|-3--3---2~~--|
A|--------3~~--|
E|-------------|

Order

Intro/verse (with guitar 2)
Intro/verse (without guitar 2)
Intro/verse (with guitar 2)
Chorus part 1 x3
Chorus part 2

Verse
without guitar 2)

Verse
With guitar 2)
Chorus part 1 x3
Chorus part 2
Verse half on it (without guitar 2, drums or bass)

Verse
With guitar 2)
Outro

Lyrics

(Intro/verse - no lyrics)

(Intro/verse)
Im rotting inside, my flesh turns to dust
Whisper are you dying in my head
Im so sick to death, tuma's in my head
Whisper are you dying in my head

(Chorus part 1)
Red rose of death
In my fist I cultch
Thorn shred my fingertips

(Chorus part 2)
And drips toxic blood

(Intro/verse)
Kiss me one last time, mop off my sweat
Whisper are you dying in my head
As my bones lay rest, weave vows of trust
Whisper are you dying in my head

(Chorus part 1)
Red rose of death
In my fist I cultch
Thorn shred my fingertips

(Chorus part 2)
And drips toxic blood

(Intro/verse)
Im rotting inside, my flesh turns to dust
Whisper are you dying in my head

(Intro/verse)
Kiss me one last time, mop off my sweat
Whisper are you dying in my head

(Outro)
Whisper are you dying in my head

Intro
E|------------------------------------------------------------|
B|------------------------------------------------------------|
G|----8-8-8-8-8-----8-8-8-8-8-----8-8-8-8-8--6-6-6--8-8-8-----|
D|-6--8-8-8-8-8--6--8-8-8-8-8--6--8-8-8-8-8--6-6-6--8-8-8-----|
A|-6--6-6-6-6-6--6--6-6-6-6-6--6--6-6-6-6-6--4-4-4--6-6-6-----|
E|-4-------------4-------------4------------------------------|

Verse
E|------------------------------------------------------------------------|
B|------------------------------------------------------------------------|
G|----------8-8-8-8--6-6-6-6--------------------8-8-8-8--6-6-6-6----------|
D|-6-6-6-6--8-8-8-8--6-6-6-6--6-6-6-6--6-6-6-6--8-8-8-8--6-6-6-6--6-6-6-6-|
A|-6-6-6-6--6-6-6-6--4-4-4-4--6-6-6-6--6-6-6-6--6-6-6-6--4-4-4-4--6-6-6-6-|
E|-4-4-4-4--------------------4-4-4-4--4-4-4-4--------------------4-4-4-4-|

Chorus
E|------------------------------------|-----------------------------------|
B|------------------------------------|-----------------------------------|
G|----------6-6-6-6-----------8-8-8-8-|----------6-6-6-6-----------8-8-8-8|
D|-3-3-3-3--6-6-6-6--3-3-3-3--8-8-8-8-|-3-3-3-3--6-6-6-6--3-3-3-3--8-8-8-8|
A|-3-3-3-3--4-4-4-4--3-3-3-3--6-6-6-6-|-3-3-3-3--4-4-4-4--3-3-3-3--6-6-6-6|
E|-1-1-1-1-----------1-1-1-1----------|-1-1-1-1-----------1-1-1-1---------|

E|------------------------------------------------------------|
B|------------------------------------------------------------|
G|-8-8-8-8--8-8-8-8-------------------------------------------|
D|-8-8-8-8--8-8-8-8-------------------------------------------|
A|-6-6-6-6--6-6-6-6-------------------------------------------|
E|------------------------------------------------------------|

Order

Intro
Verse
Chorus
Verse
Chorus
Intro x2

Chorus
hold last chord for a bit)

Sorry but I work out the lyrics ( apart from stuck with me J)

This is a difficult rhythm to pick, but keep it at cos' it sounds so sweet when you get it.

Intro
E|----------------------------------------------------------------------|
B|----------------------------------------------------------------------|
G|-----------------------------------4-4-4-4-4-4-4-4--4-4-4-4-4-4-4-4---|
D|-4-4-4-4-4-4-4-4--4-4-4-4-4-4-4-4--4-4-4-4-4-4-4-4--4-4-4-4-4-4-4-4---|
A|-4-4-4-4-4-4-4-4--4-4-4-4-4-4-4-4--2-2-2-2-2-2-2-2--2-2-2-2-2-2-2-2---|
E|-2-2-2-2-2-2-2-2--2-2-2-2-2-2-2-2-------------------------------------|

E|----------------------------------------------------------------------|
B|----------------------------------------------------------------------|
G|------------------6-6-6-6-6-6-6-6-------------------------------------|
D|-4-4-4-4-4-4-4-4--6-6-6-6-6-6-6-6--4-4-4-4-4-4-4-4--4-4-4-4-4-4-4-4---|
A|-4-4-4-4-4-4-4-4--4-4-4-4-4-4-4-4--4-4-4-4-4-4-4-4--4-4-4-4-4-4-4-4---|
E|-2-2-2-2-2-2-2-2-------------------2-2-2-2-2-2-2-2--2-2-2-2-2-2-2-2---|

Verse
lyrics come in here)
E|----------------------------------------------------------------------|
B|----------------------------------------------------------------------|
G|-----------------------------------4-4-4-4-4-4-4-4--4-4-4-4-4-4-4-4---|
D|-4-4-4-4-4-4-4-4--4-4-4-4-4-4-4-4--4-4-4-4-4-4-4-4--4-4-4-4-4-4-4-4---|
A|-4-4-4-4-4-4-4-4--4-4-4-4-4-4-4-4--2-2-2-2-2-2-2-2--2-2-2-2-2-2-2-2---|
E|-2-2-2-2-2-2-2-2--2-2-2-2-2-2-2-2-------------------------------------|

E|----------------------------------------------------------------------|
B|----------------------------------------------------------------------|
G|-----------------------------------6-6-6-6-6-6-6-6--6-6-6-6-6-6-6-6---|
D|-4-4-4-4-4-4-4-4--4-4-4-4-4-4-4-4--6-6-6-6-6-6-6-6--6-6-6-6-6-6-6-6---|
A|-4-4-4-4-4-4-4-4--4-4-4-4-4-4-4-4--4-4-4-4-4-4-4-4--4-4-4-4-4-4-4-4---|
E|-2-2-2-2-2-2-2-2--2-2-2-2-2-2-2-2-------------------------------------|

Chorus
E|--------------------------------------------------------------------------|
B|--------------------------------------------------------------------------|
G|4-4-4-4-4-4-4-4------------------------------------4-4-4-4-4-4-4-4-4-4-4-6|
D|4-4-4-4-4-4-4-4--3-4-4-4-4-4-4-4--3-4-4-4-4-4-4-4--4-4-4-4-4-4-4-4-4-4-4-6|
A|2-2-2-2-2-2-2-2--3-4-4-4-4-4-4-4--3-4-4-4-4-4-4-4--2-2-2-2-2-2-2-2-2-2-2-4|
E|-----------------1-2-2-2-2-2-2-2--1-2-2-2-2-2-2-2-------------------------|

Solo
sounds a little off but oh well)
E|---------------------------------------------------------------------------|
B|---------------------------------------------------------------------------|
G|---------------------------------------------------------------------------|
D|-------------------------11-13-13-9-9-10-10-10---11---8\6--------11-12-8\6-|
A|-9-9-9-13-11-9-9-9-11-13-----------------------9----9------9---9-----------|
E|---------------------------------------------------------------------------|

E|-------------|                |-------------|
B|-------------| x2 but on the  |-------------|
G|-------------| 2nd repeat     |-------10----|
D|-44-33-11----| end with this  |----11-------|
A|----------44-|                |--9----------|
E|-------------|                |-------------|

Outro
E|----------------------------------------------------------------------|
B|----------------------------------------------------------------------|
G|-----------------------------------4-4-4-4-4-4-4-4--4-4-4-4-4-4-4-4---|
D|-4-4-4-4-4-4-4-4--4-4-4-4-4-4-4-4--4-4-4-4-4-4-4-4--4-4-4-4-4-4-4-4---|
A|-4-4-4-4-4-4-4-4--4-4-4-4-4-4-4-4--2-2-2-2-2-2-2-2--2-2-2-2-2-2-2-2---|
E|-2-2-2-2-2-2-2-2--2-2-2-2-2-2-2-2-------------------------------------|

E|---------------------------------------------------------------------|
B|---------------------------------------------------------------------|
G|------------------6#-------------------------------------------------|
D|-4-4-4-4-4-4-4-4--6#--(pause)-----4-4-4-4-4-4-4-4--4-4-4-4-4-4-4-4---|
A|-4-4-4-4-4-4-4-4--4#--------------4-4-4-4-4-4-4-4--4-4-4-4-4-4-4-4---|
E|-2-2-2-2-2-2-2-2------------------2-2-2-2-2-2-2-2--2-2-2-2-2-2-2-2---|

E|----------------------------------------------------------------------|
B|----------------------------------------------------------------------|
G|--6-6-6-6-6--6#-------------------------------------------------------|
D|--6-6-6-6-6--6#--4-4-4-4-4-4-4-4--4-4-4-4-4-4-4-4--4-4-4-4-4-4-4-4----|
A|--4-4-4-4-4--4#--4-4-4-4-4-4-4-4--4-4-4-4-4-4-4-4--4-4-4-4-4-4-4-4----|
E|-----------------2-2-2-2-2-2-2-2--2-2-2-2-2-2-2-2--2-2-2-2-2-2-2-2----|

Order

Intro
Verse
Intro
Chorus

Intro
but rest after you play |466xxx| once, and then continue
Solo
Chorus
Outro

Lyrics

(Intro - no lyrics)

(Verse)
Sometimes it gets real hard, and I need some kind of helpers
For a heat twice the size of my one inch mind

(Intro
So slap my on the head put in right back down in my pants
Turn my around and around kick me in the head

(Chorus)
Well today I say sweet things, but tomorrow...
I'll be making up excuses for my actions cos' its been
So long

(Intro)
Since Ive be in the, the special kind of feeling
Its my best excuse im on the wagon again. Ahhhh ey!

(Solo - no lyrics)

(Chorus)
Well today I say sweet things, but tomorrow...
I'll be making up excuses for my actions cos' its been
So long

(Outro
Since Ive be in that, that special kind of feeling
Its my best excuse im on the wagon again.
Well ive got no real excuse im on the wagon again. Oii,
(clapping) and Billie Joe saying "well done"

Green Day HA HA you're dead

Here is ha ha your dead curtsey of Bjfabio, thanks dude

The verse says all PM even though there are a few open chords played in between but they
are mostly improvised, so play the opens whenever you feel like it

Verse
E|--------------------------------------------------------------------|
B|--------------------------------------------------------------------|
G|-5-5-5-5-5-5-5-5----------------------------------------------------|
D|-5-5-5-5-5-5-5-5--5-5-5-5-5-5-5-5--7-7-7-7-7-7-7-7--7-7-7-7-7-7-7-7-|
A|-3-3-3-3-3-3-3-3--5-5-5-5-5-5-5-5--7-7-7-7-7-7-7-7--7-7-7-7-7-7-7-7-|
E|------------------3-3-3-3-3-3-3-3--5-5-5-5-5-5-5-5--5-5-5-5-5-5-5-5-|

Pre-Chorus
E|----------------------------------|
B|----------------------------------|
G|----------------------------------|
D|-3-3-3-5-5-5-5-5--5-5-5-5-5-5-5-5-|
A|-3-3-3-5-5-5-5-5--5-5-5-5-5-5-5-5-|
E|-1-1-1-3-3-3-3-3--3-3-3-3-3-3-3-3-|

Chorus
E|--------------------------------------------------------------------|
B|--------------------------------------------------------------------|
G|-5-5-5-5-5-5-5-5-------------------5-5-5-5-5-5-5-5------------------|
D|-5-5-5-5-5-5-5-5--3-3-3-3-3-3-3-3--5-5-5-5-5-5-5-5--5-5-5-5-5-5-5-5-|
A|-3-3-3-3-3-3-3-3--3-3-3-3-3-3-3-3--3-3-3-3-3-3-3-3--5-5-5-5-5-5-5-5-|
E|------------------1-1-1-1-1-1-1-1-------------------3-3-3-3-3-3-3-3-|

E|--------------------------------------------------------------------|
B|--------------------------------------------------------------------|
G|-----------------------------------5-5-5-5----------5-5-5-5-5-5-5-5-|
D|-7-7-7-7-7-7-7-5--3-3-3-3-3-3-3-3--5-5-5-5-5-5-5-5--5-5-5-5-5-5-5-5-|
A|-7-7-7-7-7-7-7-5--3-3-3-3-3-3-3-3--3-3-3-3-5-5-5-5--3-3-3-3-3-3-3-3-|
E|-5-5-5-5-5-5-5-3--1-1-1-1-1-1-1-1----------3-3-3-3------------------|

Solo
Over Chorus)
E|-8-8-8-8--1-1-1-1--8-8-8-8--3-3-3-3--5-5-5-5--1-1-1-1--8-8-3-3--8---|
B|--8-8-8-8--1-1-1-1--8-8-8-8--3-3-3-3--5-5-5-5--1-1-1-1--8-8-3-3-----|
G|--------------------------------------------------------------------|
D|--------------------------------------------------------------------|
A|--------------------------------------------------------------------|
E|--------------------------------------------------------------------|

End With |x355xx|

Verse x6
Pre-Chorus x4
Verse x4
Pre-Chorus
Chorus
Chorus + solo
Chorus
Chorus + Solo
Chorus

Lyrics

(Verse)
How do you get your sleep at night?
How did you get your news so tight?
Like chewing on tin foil its so much fun
Gonna be dead before your gone

(Pre Chorus)
Because all the things are coming
And I'll be happy so I wont be dead
And I'll be cheering cos your goin down
And I'll be laughing, I'll be laughing

(Verse)
How many feelings can you steal?
Gonna be part of your appeal
I can see through you - cos'
You're wearing thin
Like chewing on tin foil once again

(Pre Chorus)
Because all the things are coming
And I'll be happy so I wont be dead
And I'll be cheering cos your goin down
And I'll be laughing

(Chorus)
Ha ha your dead and im so happy
In loving memory of your demise
When your ship is goin down
I'll go out and paint the town
Ha ha you're dead; ha ha you're dead
Ha ha you're dead

(Solo)
Ha ha ha

(Chorus)
Ha ha your dead and im so happy
In loving memory of your demise
When your ship is goin down
I'll go out and paint the town
Ha ha you're dead; ha ha you're dead
Ha ha you're dead

(Chorus + solo)
Ha ha your dead, thank god its over
You were an ass hole and now your gone
As your ship is goin down
I'll stand by and watch you drown
Ha ha you're dead; ha ha you're dead
Ha ha you're dead

(End chorus)
Ha ha your dead your gonna be dead
Just remember what I said
Ha ha you're dead; ha ha you're dead
Ha ha you're dead