Green Day - The Ballad Of Wilhelm Fink Text Guitar Tab

Learn the song with the online tablature player
This is my version for Ballad Of Wilhelm Fink by Green Day.. i think it sounds okay (:

VERSE
Said that i'd meet you..
E-----------------------|
B-----------------------|
G----6-4---6---6-4-6----|
D--4-6-4-4-6-4-6-4-6-4--|
A--4-4-2-4-4-4-4-2-4-4--|
E--2-----2---2-------2--|

CHORUS
But considering our luck..
E-----------------------|
B-----------------------|
G--4---6---4------------|
D--4-4-6-4-4-4-9-11-4---|
A--2-4-4-4-2-4-9-11-4---|
E----2---2---2-7-9--2---|