Green Day - Warning Text Guitar Tab

Learn song with the online tabulature player
Artist: Green Day
Title: Warning
Album: Warning
E-mail:markusbrownus2@hotmail.com

This song is basically four chords all the way through


    A       D        G        D
e---------3-3-3-3--3-3-3-3-3-3-3-3----|
b-2-2-2-2-2-2-2-2--0-0-0-0-2-2-2-2----|
g-2-2-2-2-3-3-3-3--0-0-0-0-3-3-3-3----|
d-2-2-2-2-0-0-0-0--0-0-0-0-0-0-0-0----|
a------------------2-2-2-2------------|
E------------------3-3-3-3------------|

this part could be bass but you can play it on the guitar after he has repeated "warning" a few times

e-----------------------------------------------|
b-----------------------------------------------|
g-----------------------------------------------|
d-----------------------------------------------|
a-0-4-0-----0-4-4-0-----------------------------|
E-------3-0---------3-0-------------------------|

there you go, all nice and simple