Greg Laswell - Comes And Goes In Waves Text Guitar Tab

Learn song with the online tabulature player
Note: --------This is ONLY the Intro---------
I'm posting this intro because I don't see any others that completely fit the song. And 
sorry if this isn't such a great tab, it's my first one. :p
Try and get the rhythm by listening to the song
Tuning: Standard(EADGbe)
Capo: 5th Fret (Tabs in relation to the Capo)

|----------|----------|----------|----------|
|------0---|------0---|------1---|------1---|
|----0---0-|----0---0-|----0---0-|----0---0-|
|--2-------|--2-------|--2-------|--2-------|
|----------|----------|----------|----------|
|----------|----------|----------|----------|

|----------|----------|----------|----------|
|------0---|------0---|----------|----------|
|----0---0-|----0---0-|----0---0-|----0---0-|
|--0-------|--0-------|--0---7---|--0---7---|
|----------|----------|----------|----------|
|----------|----------|----------|----------|