Gregory And The Hawk - Avalanche Oh Avalanche Text Guitar Tab

Learn song with the online tabulature player
-------------------------------------------------------------------------------
                             Avalanche! Oh Avalanche - Gregory and the Hawk
-------------------------------------------------------------------------------
Tabbed by: jsaltz


Tuning: standard [Capo on 4th]


e|-----0-0-0-0-0----0-0-0-0-0--|
B|-----1-1-1-1-3----1-1-1-1-3--|
G|-----2-2-2-2-2----2-2-2-2-2--|
D|-----2-2-2-2-2----2-2-2-2-2--|
A|-----0-0-0-0-0----0-0-0-0-0--|
E|-----------------------------|

e|-----0-0-0-0-0----3-3-3-3-3--|
B|-----1-1-1-3-3----3-3-3-3-3--|
G|-----2-2-2-2-2----0-0-0-0-0--|
D|-----2-2-2-2-2----0-0-0-0-0--|
A|-----0-0-0-0-0----2-2-2-2-2--|
E|------------------3-3-3-3-3--|
      Avalanche! Oh, Avalanche! 
You are the number one natural disaster 
in Switzerland..
..The Swiss put up barriers to keep you out
and build covered roadways to save themselves


e|------0-0-0---------3-3-3--------|
B|------1-1-1--3-3-3--3-3-3--0-0-0-|
G|------2-2-2--2-2-2--0-0-0--0-0-0-|
D|------2-2-2--0-0-0--0-0-0--2-2-2-|
A|------0-0-0--0-0-0--2-2-2--2-2-2-|
E|-------------2-2-2--3-3-3--0-0-0-|
    But It's no use, you always kill
    at least a few skiers a year
   Just to remind them to be fearful 
     At least a few skiers a year...
      ...A few innocent lives a year 

e|-----0-0-0-0-0----3----------|
B|-----1-1-1-3-3----3----------|
G|-----2-2-2-2-2----0----------|
D|-----2-2-2-2-2----0----------|
A|-----0-0-0-0-0----2----------|
E|------------------3----------|
    Avalanche! Oh, Avalanche! 


This is how I play it..
Love the song and artist..
If your strings are bright, you might not want to play the high e..
just stick to the low tones..
Comments? Questions? Disagreements?