Grin Department - Fininger Text Guitar Tab

Learn the song with the online tablature player
For your questions or suggestions,just PM or Text me!!
Please Rate...

Gtr.Legends:
~ - let it ring
x - scratching

Intro
e|--------------------------------------------|
B|--------------------------------------------|
G|--------------------------------------------|
D|-6~--6~--4~--6~--6~--4-3-4-3---666x666666---|
A|-4~--6~--4~--4~--6~--4-3-4-3---666x666666---|
E|-----4~--2~------4~--2-1-2-1---444x444444---|

Verse
e|------------------------------------------------------------------|
B|------------------------------------------------------------------|
G|------------------------------------------------------------------|
D|-666-x-666-444-x-66----666-x-666-444-x-66----666-x-666-444-x-66---|
A|-444-x-666-444-x-44----444-x-666-444-x-66----444-x-666-444-x-44---|
E|-----x-444-222-x-----------x-444-222-x-44--------x-444-222-x------|

------------------------------------------|
------------------------------------------|
------------------------------------------| 2x
-666-x-666-444-66666--4-3-4-3--66666666---|
-444-x-666-444-66666--4-3-4-3--66666666---|
-----x-444-222-44444--2-1-2-1--44444444---|

Chorus
e|-------------|
B|-------------|
G|-------------| 4x
D|-4444-6666---|
A|-4444-6666---|
E|-2222-4444---|

Repeat Verse:

Repeat Chorus:

Repeat Verse:

Outro
Play Verse

e|--------------------4~---|
B|--------------------4~---|
G|--------------------6~---|
D|-4-3-4-3--66666~----6~---|
A|-4-3-4-3--66666~---------|
E|-2-1-2-1--44444~---------|

End

Fininger Lrics:

Verse
hating gabi ng umuwi ng bahay si pareng juan
pagkagaling sa trabaho sumabit sa inuman
napagsarhan ng pintuan sa bintana na dumaan
buking parin sinalubong ng lumilipad na pinggan
Aroy, aroy, aroy, aroy, aray

Mahilig sa asawa itong si pareng juan
malakas pang mambola magaling sa dramahan
sinuyong manood ng beta at kunting halik sa tinga
sabay nanood ng beta sabay humiga sa kama

Chorus
Fininger ng fininger, Fininger ng fininger,
Fininger ng fininger,Fininger ng fininger ng fininger eh,er

Verse
fininger nya ang TV para manood ng beta
fininger nya play forward para mas masaya eksena