Grin Department - Iskin Text Guitar Tab

Learn the song with the online tablature player
eto ung plucking pattern nung Intro: (pakinggan nio n lng un audio pra s timing))

     C                    D                 G          F# Em
e|-----------0---------|--------2--------|---------2--------------0-------|
B|---------1-----1-----|------3-----3----|-------2--------------0-----0---|
G|-------0-----0-------|----2-----2------|-----0--------------0-----0-----|
D|---------------------|--0--------------|--------------------------------|
A|---3-----------------|-----------------|--------------------------------|
E|---------------------|-----------------|--3----------2---0--------------|

     Am                          D         Dsus    D
e|----------0-------0---0-----|--------2---3p2--0--2-------|
B|--------1-----1-------------|------3---------------------|
G|------2-----2---2---2---2---|----2-----2-----------------|
D|----------------------------|--0-------------------------|
A|---0------------------------|----------------------------|
E|----------------------------|----------------------------|

Intro
C D G  F#  Em Am D Dsus D

C        D               G F# Em
Lagi na lang tayong nag-aaway
C     D              G F# Em
Sa walang kwentang bagay
C        D        G      F#   Em
Lahat ng tao ay pinagseselosan
      Am                          D Dsus
Kahit na alam niyang itoy kausap lang

G           F#    Em
Love don't you know
 Am              D
Mahal na mahal kita
G           F# Em
Di mo lang alam
  Am        D        G F# Em
T.L. ako sa'yo sa twina..ah..
      C  D         G    F# Em
Will always love you..oh..
     Am  D Dsus D
Will always

REFRAIN
C                G
Bakit kailangan pang mangyari
     Am             D
Ang isang katulad nito
         G
Di ba't ang sabi mo
 F#      Em
Ako lang ang true love mo
     Am      D Dsus D  G
Yun pala ay di.. totoo
 F# Em  Am D
Ooh... ooh...

    G           F# Em
Mayron akong nalaman
 Am             D
Ito'y tungkol sa'yo
      G       F# Em
'Nung aking malaman
 Am               D
Ako'y na-shock sa'yo
      G F# Em  Am D
Sa twina..     ah..

G             F# Em
Long lalalalalalong
           Am
Lalalalalalonglong
            D   Dsus D
Lolonglonglong story

(REPEAT REFRAIN)

    G            F# Em
Goodbye na lang sa'yo
 Am             D
Split na lang tayo
  G              F#   Em
Salamat sa mga date natin
  Am                  D
Salamat sa mga trip natin
  G              F#    Em
Salamat din sa mga sulat mo
Am        D
Susunugin ko
  G             F#  Em
Salamat din sa nagsabing
     Am      D    Dbreak G(F@#)Em
May syota ka na palang iba..
Am D  G F# Em Am D
Aah.. haah.. haah..

   G    F# Em  Am           D
Hayho, hayho, iskin lagot kayo
   G    F# Em Am                  D
Hayho, hayho, oh mahal ang pangit mo
 G              F# Em
Iderma mo'ng mukha mo
    Am          D
Ikiskis mo sa "spalto"
   G    F# Em  Am           D
Hayho, hayho, iskin lagot kayo
   G    F# Em  Am           D
Hayho, hayho, iskin lagot kayo
   G    F# Em Am                  D
Hayho, hayho, oh mahal ang pangit mo
 G              F# Em
Iderma mo'ng mukha mo
    Am           D
Ikiskis mo sa "spalto"
   G    F# Em  Am           D
Hayho, hayho, iskin lagot kayo

G F# Em  Am D
Ooh..   ooh..
G F# Em  Am D  G fade
Ooh..   ooh.. ooh..

kmusta mga tropa ko jan s southg8 subd. tayabas!!! wooh!!
kay masher boy!!! pagaling k s gtara!!! hahaha!!! VAMPIRE ROCKS!!!!
inaalay ko sa mga babaeng dumaan sa buhay ko!!!!!!