Grinderman - Palaces Of Montezuma Text Guitar Tab

Learn song with the online tabulature player
Verse

G|----------|----------|----------|----------|
D|222-------|----------|----------|----------|
A|----------|----------|222-------|222-------|
E|----------|444--555--|----------|----------|

G|----------|----------|----------|----------|
D|---------1|222-----21|----------|----------|
A|-------24-|----------|222-------|222-------|
E|555-------|----------|--------45|----------|


  Chorus (Just second line of verse)
G|----------|----------|----------|----------|
D|---------1|222-----21|----------|----------|
A|-------24-|----------|222-------|222-------|
E|555-------|----------|--------45|----------|