Guess Who - Undun Text Guitar Tab

Learn song with the online tabulature player
Song: Undun
Artist: The Guess Who
Album: Greatest Hits(not sure what original album is)


I love this song, and since i couldn't find the tab for it anywhere, 
i decided to tab it myself. Took me a while cause it's my first tab,
but i think it's pretty close. Enjoy. It's a fun one to play.

Figure 1 is the main riff in the song, but there are some variations 
to it along the way, so be carefull. And i've included times to make it easier to follow.

Intro:

G|------------------------------------------|
D|*-10-10-9---10-10-9---10-10-9-------------|
A|*-----------------------------11-8--------|
E|-----------------------------------11-7-7-|



 |Fig. 1 (0:07)
                         Play 1st time only Play every other time
G|----------------------|------------------|---------------------|-----------------|
D|*------/9-7-7--7------|------------------|---------------------|---11-11--11-9-9-|
A|*-7-7-----------10-10-|-10--------10-9-9-|-10-------10-7-9-9---|-9---------------|
E|----------------------|----10-10---------|----10-10------------|-----------------|



                                          End Fig.1|
                                                    play 1st time only    
G|-------------------------------------------------|-------------------|
D|*-9-11-9-----------------------------------------|----12-12--11-10-9-|
A|*--------11-10-9-9--7-9-10-11-12--12--------9-10-|-10----------------|
E|-------------------------------------12-12-------|-------------------|



Play Fig.1, then play this Bass Fill #1, then play Fig.2 at the end of it.


Bass Fill #1 (0:31):

G|-----------------------------------|
D|*-12--------12------12-------12-11-|
A|*---------------10-----------------|
E|-----10-10-------------10-10-------|



 |Fig.2                              End Fig.2|

G|--------------------------------------------|
D|*-10-9------------------9--10-9-------------|
A|*------11-8---------7-9---------11-8--------|
E|------------11-8--7------------------11-7-7-|



Play Fig.1, then play this Bass Fill #2.


Bass Fill #2

G|--------------------|
D|*-12--------12-10-9-|
A|*-------------------|
E|-----10-10----------|



Play this variation on Fig.1 (0:56):

G|------------------------------------------------------------------------|
D|*-----------/9-7-7--7---------------------------------------------------|
A|*-10-9--7-7-----------10-10--10-------10-7-9--9-----9-------------7-8-9-|
E|--------------------------------10-10-----------9-9---9-7--7--7-9-------|


G|-------------------------------|
D|*------------------------------|
A|*-7-9-10-11-12--12--------9-10-|
E|-------------------12-12-------|



Then play Bass Fill #1, and finish off with Fig.2


Now play this bridge (1:18):

G|-----------------------------------------------------------------------------|
D|*----------------------------------------------------------------------------|
A|*-7---7---7-9---9---9-10---10---10-12---12--7--------------------------------|
E|---------------------------------------------9-7---7---7-8-8---8-9-9---9-8-8-|


G|---------------------------------------------------------------------------------|
D|*--------------------------------------------9-9---9-10-10---10-11-11---11-10-10-|
A|*-7---7---7-9---9---9-10---10---10-12---12---------------------------------------|
E|---------------------------------------------------------------------------------|


G|-------------11-11---11-12-12---12-14-14-|
D|*-14-14---14-----------------------------|
A|*----------------------------------------|
E|-----------------------------------------|



Play Intro again (1:55)


Play this other variation on Fig.1:

G|---------------------------------------------------------------------------|
D|*-----/9-7-7--7---------------------------11-11---11-9-9--9-11-9-----------|
A|*-7-7-----------10-10--10-------10-7-9--9-------9----------------11-10-9-9-|
E|--------------------------10-10--------------------------------------------|


G|------------------------------------------------------|
D|*-------------------------------------12-12--11-10-9\-|
A|*-7-9-10-11-12--12--------9-10-10--10-----------------|
E|-------------------12-12------------------------------|



Solo part (2:16):

G|----------------------------------------------------------------------------|
D|*-----9-9-7-7---------------------------------------------------------------|
A|*-7-7---------10-10-------10-10-7-8-9-9-----9-9---------9-9-----7-8-9-9-----|
E|--------------------10-10---------------9-9-----9-8-7-7-----7-9---------9-9-|


G|------------------------------------------------------------------------------|
D|*--------------------------------------12-12-------12-------12-12-------------|
A|*-9-10-11-12-12-------12-12----9-10-10----------------10-10-------------10-12-|
E|----------------12-12-------12---------------10-10----------------10-12-------|



Play Fig.2, then play Fig.1 and end with this:

G|----------------------------|
D|*----12-12--11-10-9--\4-----|
A|*-10--------------------6---|
E|--------------------------7-|



Play yet another variation on Fig.1 (2:51):

G|-------------------------------------------------------------------------------------|
D|*-----9-9-7-7------------------------------------------------------------------------|
A|*-7-7---------9-9-10-10--10-------10-7-9-9--9-----9--------------7-9-9--7-9-10-11-12-|
E|----------------------------10-10-------------9-9---9-7-7--7--7----------------------


G|----------------------------------------------------|
D|*-----------------12--------12-----12-12-------9-12-|
A|*-12--------9-10----------------10------------------|
E|-----12-12-----------10-10---------------10-10------|



Play Intro again


Outro (3:18):

G|---------------------------------------------------------|
D|*--------7-7--7------------------------------------------|
A|*-7-7--7--------10-10--10-------10----9-9--8-8--7let ring|
E|--------------------------10-10----10--------------------|