Gungor - Dry Bones Text Guitar Tab

Learn song with the online tabulature player
Dry Bones
Gungor

no capo
"/" = slide

e--5------------5---------------------------|
B----6------------6-------------------------|
G------7--9------------7----12----9-----7---|
D------------8----7------7-----------8------|
A-------------------5--8----13-0--10----8---|
E-------------------------------------------|

e------------------5------5--|
B-------6----8--------8---6--|
G--6/5----------5---------7--|
D---------8---------------0--|
A----------------------------|
E----------------------------|

e--5-------------------5---------------------------------|
B----6-------------------6-------------------------------|
G---------7----6--------------------7----12-----9-----7--|
D------7----7-------5---------3--5----7------------8-----|
A----5----8----7--8------5--7-------8----13--0--10----8--|
E--------------------------------------------------------|


this is an amazing song by an amazing band! Jesus is the only one who can raise the dead 
and make us new!  hope you find it accurate!

piper