Guns N' Roses - Patience Text Guitar Tab

Learn the song with the online tablature player
Solo
*----8p7--8-8/10--8----------------8p7--8-8/10---7-10/12-|
*-------------------10/12-10-8-8-------------------------|
*--------------------------------------------------------|
*--------------------------------------------------------|
*--------------------------------------------------------|
*--------------------------------------------------------|

*----8p7--8-8/10--8-----------------------------------------|
*--------------------10/12-10-8-8---------------------------|
*-----------------------------------------------------------|
*-----------------------------------------------------------|
*-----------------------------------------------------------|
*-----------------------------------------------------------|

*----10/12--10-10-12/14---12-10h12-10---------------------|
*--8------------------------------------------------------|
*---------------------------------------------------------|
*---------------------------------------------------------|
*---------------------------------------------------------|
*---------------------------------------------------------|