Guns N' Roses - Rocket Queen Text Guitar Tab

Learn the song with the online tablature player
Intro

 -------------------------------------4/6--6---9----8\4-4/6---
 -11--11------11-11------4\2-4\2-4\2--2/4--4---7----6\2-2/4---
 -11--11------11-11-------------------------------------------
 -9---9-------9--9--------------------------------------------

 -11--11---11-11-----4hb-4hb-4hb-4hb-4hb-4hb-r-p2------------
 -11--11---11-11----------------------------------2-3--4/6-6-
 -9---9----9--9----------------------------------------------

 -7---6\2-2/4--4\2-2\1-1----0-------------------------------

 -------------------------------10/-------------------------

Main Riff:

 ------0h1-------------0h1-0h1----
 --0-2------2-0--0-2-2------------

2 first verses riff:
If I say I don't need an-y-one,  I can say these things to you

 --------4hb----4hb-r-p2-2-----------4hb--------4--2-2---
'Cause I can turn on an-y-one just like I turned on you
 ----2--3--4--------------6hb-------6-r----4-*-*-4-4--*-6-6hb---6-
 -4--------4------------------------------------------------------

I've got a tongue like a ra  -   zor ,           a sweet switch blade knife

 ---4--6---6-*-*-4b---4--------5--5-5--5--5--5--5-5-5-------------
 -4-4--6---6-*-*---------6-6---4--4-4--4--4--4--4-4-4---*-*-4--2--
And I can do you favours then you'll do what-ev-er I like...

Chorus Riff

 --11--11-*-12-11---------------------9-9-9-10--9----------------------
 --11--11-*-11-11---------------------9-9-9-9---9------9-----2-----4---
 --11--11-*-11-11--11/13-----9---*-*--9-9-9-9---9-*-*--9-----2-----4---
 --9---9----9--9---9-/11-----7---*-*--7-7-7-7---7-*-*--7---0----2----4

 --11--11-*-12-11---------------------9-9-9-10--9-----------------------------
 --11--11-*-11-11---------------------9-9-9-9---9------9----------------------
 --11--11-*-11-11--11/13-----9---*-*--9-9-9-9---9-*-*--9--4-2-----------------
 --9---9----9--9---9-/11-----7---*-*--7-7-7-7---7-*-*--7-----4-3-2-0---3-2-0--
Slide-solo:

 -2///11----------------------------------------------------
 -2///11----11----/14---14----\11/14---9------9\8--8/11--11-
 -2///11-11-------/14-14------\11/14--9------------8/11-----

 -13/14-----13/14-------14-----15/16---------14/16-------------16-14~-
 -------14--------14-------14--------16-\14---------14----------------
 --------------------14---------------------------------14/16---------

 ----------------------------------------------------------17-17-17/21--
 -13/14-13/14----------------------------------------13/17--------------
 -------------14\13-----------14\13--------------14---------------------
 --------------------14--------------14/16-------14---------------------

 ------------19--19--19-19-19-19-19-19-19\\\\\\--
 ---17/19----------------------------------------

Chorus again, then:

 ------9-----4--6----6--------------------------9---2--4----------------
 ------9-----4--6----6--------------------------9---2--4----------------
 ------7-----2--4----4--------2-4--4------------7---0--2---2-4-4hb-4b-2-
 -0-0--------------------3-4----------3h4--0-0--------------------------
Last verse, cool riff:

 ----0--------0-------0------0----------0--------0------0-------0---------
 ------9--------7-------5------5---0------9--------7------7-------5-----7-
 -9------9-8-------6------6------6---9------9-8------8-------8-------8----

 ----0--------0-----------0-------0----------0---------0-------0-----0-0-----
 ------9--------7------5-------------0---------9----------7--------4-----4---
 -9------9-8------6--6------6--4-------6--9------9--8--------4---4---------4-

Power Chord progression in the last Riff: E5 B5 C#5   E5 A5 B5

Outro

 -11b---11b-p9--11b--9-------------------9----11b----r-p9-11b----11br--
 -----------------------11~~--------9h11---11--------------------------
 ------------------------------/11-------------------------------------
 -12---12---10h12p10-9h10p9-10p9p8h9p7--8p7p5--7p5p4-h5-------7h9h10-/12-

 -9h12p11p9h12b---12---11-12-11---------------------------11--11hb-----11~~~-
 -------------------------------------11~---11-11~---------------------------

/ slide down  \ slide up  h hammer-on  p pull-off   ~ left-hand vibrato
b full bend   hb half bend  qb quarter bend  * dead note