Guns N' Roses - Sorry Text Guitar Tab

Learn song with the online tabulature player
Guns N Roses

Sorry (solo)

from Chinese Democracy

tabbed by *Capn_Awesome*

this was originally tabbed for me by my mate so i put it on UG for him

if you listen to the song to get the timing right it'll sound the bo**$@ks


  (2:56)
 e|----------------|----------------------------------|
 B|----10b11r10----|----------------------------------|
 G|----------------|-----10-12-12b13r12p10-----10-----|
 D|----------------|--12--------------------12----12--|
 A|----------------|----------------------------------|
 E|----------------|----------------------------------|


 e|----------13h15-|13---15b16r15-13----------------|
 B|-10h12/14-------|--15-------------15-13-15-------|
 G|----------------|-------------------------13/12--|
 D|----------------|--------------------------------|
 A|----------------|--------------------------------|
 E|----------------|--------------------------------|


 e|------------------------------|---13--12---------------|
 B|------------------------------|-10--10--10-13b15r13-10-|
 G|-10-12b13r12-10----10(hold)/0-|------------------------|
 D|----------------12------------|------------------------|
 A|------------------------------|------------------------|
 E|------------------------------|------------------------|


 e|---13--12-----------------------------|-------------------------|
 B|-10--10--10-13-13-13b15r13-10---------|---------------------13--|
 G|-----------------------------13/12-10-|-12-10-12/14------10-----|
 D|--------------------------------------|-------------10-12-------|
 A|--------------------------------------|-------------------------|
 E|--------------------------------------|-------------------------|


 e|---------------17------------------------------------|
 B|-17b18r17b18r17--b18r17b18r17---------------15h17h18-|
 G|-----------------------------17p14-14h15h17----------|
 D|-----------------------------------------------------|
 A|-----------------------------------------------------|
 E|-----------------------------------------------------|


 e|-------------20-18-17-18-20-------------------------|
 B|-20-18-17-18----------------18-17-18-20b22r20~~~~~~~|
 G|----------------------------------------------------|
 D|----------------------------------------------------|
 A|----------------------------------------------------|
 E|----------------------------------------------------|


----------------------
|  Key:-             |
|       b-bend       |
|       r-return     |
|       /-slide      |
|       h-hammer on  |
|       p-pull off   |
|       ~-vibrato    |
|                    |
----------------------