Guns N' Roses - You Could Be Mine Text Guitar Tab

Learn the song with the online tablature player
You Could Be Mine
Guns N' Roses
Use your illusion II

Intro
|----------------------------------------|---------------------------------|-----------|
|----------------------------------------|---------------------------------|-----------|
|----------------------------------------|---------------------------------|-----------|
|----------------------------------------|---------------------------------|-----x/----|
|----------------------------------------|---------------------------------|-----x/----|
|12-12-12-12-12-12-12-12-9-9-9-9-9-9-7-7-|-7-7-7-7-7-7-7-7-5-5-4-4-3-3-3-3-|-----------|

    Hold this note
|--14---------|------------|------------|-------------|14171417141714171417141714171417|
|--14---------|------------|------------|-------------|--------------------------------|
|--14---------|------------|------------|-------------|--------------------------------|
|-------------|------------|------------|-------------|--------------------------------|
|-------------|------------|------------|-------------|--------------------------------|
|-------------|------------|------------|-------------|--------------------------------|
|             |            |            |             |                                |
|-------------|------------|------------|-------------|--------------------------------|
|-------------|------------|------------|-------------|--------------------------------|
|-------------|------------|------------|-2-----------|--------------------------------|
|-------------|------------|------------|-2-----------|--------------------------------|
|-------------|------------|------------|-------------|--------------------------------|
|-------------|------------|------------|-------------|--------------------------------|

|1417141714171417----------------|----------14-|-------------|------------|--14-----14-|
|----------------14--------------|-------------|-------------|------------|---------14-|
|--------------------------------|-------------|14-----------|------------|-----14--14-|
|--------------------------------|-------------|-------------|------------|------------|
|--------------------------------|-------------|-------------|------------|------------|
|--------------------------------|-------------|-------------|------------|------------|
|                                |             |             |            |            |
|--------------------------------|-------------|-------------|------------|------------|
|--------------------------------|-------------|------2------|------------|------2-----|
|-2------------------------------|-------------|-------------|------------|------------|
|--------------------------------|-------------|-------------|------------|------------|
|--------------------------------|-------------|-------------|------------|------------|
|--------------------------------|-------------|-------------|------------|------------|

|------------------|---------------|-----------------|---------------|-----------------|
|----------16b16p14|---14----------|---------14b14p12|---12----------|---------16b16p14|
|----------16b16p14|---14----------|---------14b14p12|---12----------|---------16b16p14|
|---16\9/20--------|16-14----------|-----------------|14-12----------|-----------------|
|-14---------------|---------------|-----------------|---------------|-----------------|
|------------------|---------------|-----------------|---------------|-----------------|
|                  |               |                 |               |                 |
|------------------|---------------|-----------------|----3----------|-----------------|
|-----------4b-4p-2|----2----------|----------2b-2p-0|----3----------|----------4b-4p-2|
|-----------4b-4p-2|----2----------|----------2b-2p-0|---------------|----------4b-4p-2|
|----x-------------|-4--2----------|-----------------|-2-------------|-----------------|
|------------------|---------------|-----------------|---------------|-----------------|
|------------------|---------------|-----------------|---------------|-----------------|

|----------------|-----------------|----------------|-----------------|----------------|
|---14-----------|---------16b16p14|----12----------|---------16b16p14|----14--14b14p14|
|---14-----------|---------16b16p14|----12----------|---------16b16p14|----14--14b14p14|
|16-14-----------|-----------------|-14-12----------|-----------------|-16-14----------|
|----------------|-----------------|----------------|-----------------|----------------|
|----------------|-----------------|----------------|-----------------|----------------|
|                |                 |                |                 |                |
|----------------|-----------------|-----3----------|-----------------|----------------|
|----2-----------|----------2b-2p-0|-----3----------|----------4b-4p-2|-----2---4b-4p-2|
|----2-----------|----------2b-2p-0|----------------|----------4b-4p-2|-----2---4b-4p-2|
|-4--2-----------|-----------------|--2-------------|-----------------|--4--2----------|
|----------------|-----------------|----------------|-----------------|----------------|
|----------------|-----------------|----------------|-----------------|----------------|

|----------------|----------------|----------------|-----------------|-----------------|
|---14---14b14p12|---12---14b14p12|---12---16b16p14|----14---16b16p14|----14---14b14p12|
|---14---14b14p12|---12---14b14p12|---12---16b16p14|----14---16b16p14|----14---14b14p12|
|16-14-----------|14-12-----------|14-12-----------|-16-14-----------|-16-14-----------|
|----------------|----------------|----------------|-----------------|-----------------|
|----------------|----------------|----------------|-----------------|-----------------|
|                |                |                |                 |                 |
|----------------|----3-----------|----3-----------|-----------------|-----------------|
|----2----2b-2p-0|----3----2b-2p-0|----3----4b-4p-2|-----2----4b-4p-2|-----2----2b-2p-0|
|----2----2b-2p-0|---------2b-2p-0|---------4b-4p-2|-----2----4b-4p-2|-----2----2b-2p-0|
|-4--2-----------|-2--------------|-2--------------|--4--2-----------|--4--2-----------|
|----------------|----------------|----------------|-----------------|-----------------|
|----------------|----------------|----------------|-----------------|-----------------|

                                   E                                 Esus4
|----------------|---------------|-----------------|-----------------|-----------------|
|--12b--12b--12b-|---12b--12\----|-----------------|-----------------|--------------10B|
|--12b--12b--12b-|---12b--12\----|/9-------------2/|13-------------2/|14---------------|
|14---14---14----|-14---14-------|-----------------|-----------------|-----------------|
|----------------|---------------|-----------------|-----------------|-----------------|
|----------------|---------------|-----------------|-----------------|-----------------|
|                |               |                 |                 |                 |
|---3----3----3--|----3----3-----|-----------------|-----------------|-----------------|
|---3----3----3--|----3----3-----|-----------------|-----------------|-----------------|
|----------------|---------------|---------7-7-7-7-|-9-9-9-9-9-9-9-9-|-9-9-9-9-9-9-9-9-|
|-2----2----2----|--2----2-------|-9-9-9-9-9-9-9-9-|-9-9-9-9-9-9-9-9-|-9-9-9-9-9-9-9-9-|
|----------------|---------------|-7-7-7-7-7-7-7-7-|-7-7-7-7-7-7-7-7-|-7-7-7-7-7-7-7-7-|
|----------------|---------------|-0-0-0-0-0-0-0-0-|-0-0-0-0-0-0-0-0-|-0-0-0-0-0-0-0-0-|

                    Hold note until opening lyrics
|-----------------|--------------|----------------|--------------|----------------|
|-----------------|-12B----------|----------------|--------------|------5B------5-|
|-----------------|--------------|----------------|--------------|----------------|
|-----------------|--------------|----------------|--------------|----------------|
|-----------------|--------------|----------------|--------------|----------------|
|-----------------|--------------|----------------|--------------|----------------|
|                 |              |                |              |                |
|-----------------|--------------|----------------|--------------|----------------|
|-----------------|--------------|----------------|--------------|----------------|
|-9-2-4-2-4-2-----|--------------|--2-4-2-4-2-----|--------------|--2-4-2-4-2-----|
|-9-2-4-2-4-2-4-2-|-4--4--2-4--4-|--2-4-2-4-2-4-2-|-4--4--2-4--4-|--2-4-2-4-2-4-2-|
|-7-----------4-2-|-4--4--2-4--4-|------------4-2-|-4--4--2-4--4-|------------4-2-|
|-0---------------|--------------|----------------|--------------|----------------|

                                                                           I'm a
|--------------|--------------2-|------------------2------|-2---------------------|
|------------5-|----------------|-5p2-------------2-5p-2--|--5p2------------------|
|--------------|----------------|-------4B44p2-4B-------4B|-----4--2--4--2--------|
|--------------|----------------|-------------------------|-----------------4--2--|
|--------------|----------------|-------------------------|-----------------------|
|--------------|----------------|-------------------------|-----------------------|
|              |                |                         |                       |
|--------------|----------------|-------------------------|-----------------------|
|--------------|----------------|-------------------------|-----------------------|
|--------------|--2-4-2-4-2-----|-------------------------|--2--4--2--4--2--------|
|-2--2--0-2--2-|--2-4-2-4-2-4-2-|-4-----4-----2--4-----4--|--2--4--2--4--2--4--2--|
|-2--2--0-2--2-|------------4-2-|-4-----4-----2--4-----4--|-----------------4--2--|
|--------------|----------------|-------------------------|-----------------------|

1st, 2nd Verses
2nd time w/Fill2
F#5
cold heart-break-er,      fit ta burn,_and   I'll_   rip  your  heart in   two,_
|--------------------------|-------------------------|--------------------------|
|----------------------2---|-------------------------|--------------------------|
|----------------------2---|-------------------------|--------------------------|
|-4--------------------2---|-------------------------|--------------------------|
|--------------------------|-------------------------|--------------------------|
|--------------------------|-------------------------|--------------------------|
|                          |                         |                          |
|-------2---------2-----2--|-------------------------|-------2---------2-----2--|
|-------2---------2-----2--|----2--------4-----------|-------2---------2-----2--|
|-----------------------2--|----2--4--2--4--2--------|--------------------------|
|-4--------4-4-4-----------|-4--2--4-----------4--2--|-4--------x-4-4-----4-----|
|--------------------------|-------------------------|--------------------------|
|--------------------------|-------------------------|--------------------------|

                   F#5 E5                               F#5
____           and I'll  leave____    you____       ly  -  in'__  on_the bed.__
|-------------------------|-------0--------0-----0--|-------------------------|
|----2--4--2--4--2--------|-------0-----0-----2--0--|----2--4--2--4--2--------|
|----2--4--2--4--2--------|-1-------x-x-1-----------|----2--4--2--4--2--------|
|-4-----------------4--0--|-2-------x-x-------------|-------------------4--2--|
|-------------------------|-------------------------|-------------------------|
|-------------------------|-------------------------|-------------------------|

F#5                                                  F#5
________                                 Well I'll be out   the door_      be -
|-------2---------2-----2--|-------------------------|----------------2-----2--|
|-------2--x-x-2--2-----2--|-4-----------------------|-------2--------2--2--2--|
|--------------------------|-4--2--4--2--4--2--------|-------2-----------------|
|-4------------------------|----2--4--2--4--2--4--2--|-------------------------|
|--------------------------|-------------------4--2--|-4-----------x-----------|
|--------------------------|-------------------------|-2-----------x-----------|

                           F#5
fore  ya wake._      It's nuth-in'    new    ta you,__            'Cause I
|-------------------------|-------2---------2-----2--|-------------------------|
|----2--4--2--4--2--------|-------2--x-x----2-----2--|-------------------------|
|----2--4--2--4--2--------|--------------4-----------|----2--4--2--4--2--------|
|-------------------4--2--|-4------------------------|----2--4--2--4--2--4--0--|
|-------------------------|--------------------------|-------------------------|
|-------------------------|--------------------------|-------------------------|

E                                       F#5
think___ we've___   seen  that  mov - ie too.______________   Ow!______     'Cause
|-----0------0---0-|-------------------------|-----2------2---2--|----------------|
|-----0---0----2---|----2--------4-----------|-----2-xx---2---2--|----------------|
|-1-----x-1--------|----2--4--2--4--2--------|-------xx----------|--2-4-2-4-2-----|
|-2-----x----------|-2-----4-----------4--0--|-4-------4---------|--2-4-2-4-2-2---|
|------------------|-------------------------|-------------------|--------------0-|
|------------------|-------------------------|-------------------|----------------|

Chorus Fig. 2A
  A5         B5        F#5                              A5                     B5
you       could_ be   mine,_               but you're way___________________ out_ of
|----------|----------|--------------|----------------|----------------------|-----------|
|----------|----------|--------------|----------------|----2-2---------------|-----------|
|---2------|---4------|--------------|----------------|----2-2---------------|---4-------|
|-2-2------|-4-4------|----4---------|----------------|-2----2---------------|-4---------|
|-0--------|-2--------|---4----------|----------------|-0----0---------------|-2---------|
|----------|----------|-2------------|----------------|----------------------|-----------|

F#5                                  A5                         B5
line.__                   With your bitch slap rappin' and your co-caine tongue,__
|------------|---------------------|--------------------------|--------------------------|
|------------|---------------------|--------------------------|--------------------------|
|------------|---------------------|-----2--------------------|-------4-----------(0)-x--|
|---4--------|----4---x--4---4-----|-2--2---------------------|----4--------------(0)-x--|
|--4---------|-4---------4---4--0--|-0------------------------|-2------------------------|
|-2----------|-2---------2---2-----|--------------------------|--------------------------|
                                                                        (end Rhy. Fig. 2A)
                                                                      ____________________
                                                                     |1.
F#5                                         A5                        B5        F#5
nuth  -  in'____   done.          I said   you____________________   could__be_ mine.__
|----------------|-------------------------|-------------------------|----------|-------|
|----------------|-------------------------|-------------------------|----------|-------|
|14-----11/13----|11-----------------------|-------------------------|-4--------|-------|
|----------------|-------------------------|-------------------------|-4--------|-4-----|
|12------9/11----|-9-----------------------|-------------------------|-2--------|-4-----|
|----------------|-------------------------|-------------------------|----------|-2-----|
|                |                         |                         |          |
|----------------|-------------------------|-------------------------|----------|
|----------------|-------------------------|-------------------------|----------|
|----------------|-------------------------|-------2-----------------|----------|
|-7------6-------|-4-----------------------|----2--------------------|----------|
|----------------|-------------------------|-0-----------------------|----------|
|-5------4-------|-2-----------0--1--2--4--|-------------------------|----------|

    Ow!Wow!
|----------------|---------------|-----------------|---------------|-----------------|
|----------------|---------------|-----------------|---------------|--------------17-|
|----------------|---------------|-----------------|---------------|-----------------|
|----------------|---------------|-----------------|---------------|-----------------|
|----------------|---------------|-----------------|---------------|-----------------|
|----------------|---------------|-----------------|---------------|-----------------|
|                |               |                 |               |                 |
|----------------|---------------|-----------------|---------------|-----------------|
|----------------|---------------|-----------------|---------------|-----------------|
|--2-4-2-4-2-----|---------------|---2-4-2-4-2-----|---------------|---2-4-2-4-2-----|
|--2-4-2-4-2-4-2-|--4--4--2-4--4-|---2-4-2-4-2-4-2-|--4--4--2-4--4-|---2-4-2-4-2-4-2-|
|------------4-2-|--4--4--2-4--4-|-------------4-2-|--4--4--2-4--4-|-------------4-2-|
|----------------|---------------|-----------------|---------------|-----------------|

                                                                                  Now_
|-----------------|-------------14-----17B|----17b-14----16b16|------p14-----16b16----|
|------------14---|-17------------17p14---|----------17p14----|---------17p14---------|
|---------------14|-----------------------|-------------------|-----------------------|
|--------------16-|-----------------------|-------------------|-----------------------|
|-----------------|-----------------------|-------------------|-----------------------|
|-----------------|-----------------------|-------------------|-----------------------|
|                 |                       |                   |                       |
|-----------------|-----------------------|-------------------|-----------------------|
|-----------------|-----------------------|-------------------|-----------------------|
|-----------------|--2--4--2--4--2--------|-------------------|--2--4--2--4--2--------|
|-2---2---0-2---2-|--2--4--2--4--2--4--2--|-4---4---2--4---4--|--2--4--2--4--2--4--2--|
|-2---2---0-2---2-|-----------------4--2--|-4---4---2--4---4--|-----------------4--2--|
|-----------------|-----------------------|-------------------|-----------------------|
                                                                   Interlude
                                                                   w/Riffs A, A1, & A2
_________________________________________________________________________________
|2.
   B5                C#5
could___ be        mine!________________________________________
|------------------|---------------|-----------------------------|
|------------------|---------------|---------------16--------14--|
|--4---------------|--6------------|--6\-----------16--------14--|
|--4---------------|--6------------|--6\-------------------------|
|--2---------------|--4------------|--4\-------------------------|
|------------------|---------------|-----------------------------|
|                  |               |                             |
|------------------|---------------|-----------------------------|
|------------------|---------------|-----------------------------|
|--4---------------|--6------------|----------------4---------2--|
|--4---------------|--6------------|----------------4---------2--|
|--2---------------|--4------------|-----------------------------|
|------------------|---------------|-----------------------------|

You could  be  mine.____________________________
You could be  mine
(Whispered)
Sh-sh-sh-sh sh.
You_ could be mine.
You could be mine.
Sh - sh-sh-sh.
You could be mine,_  mine,   mine,   mine!

Bridge
end Rhy. Fig. 3)
Rhy. Fig.3

G5                 F#5        G5          A           D   A
Ooh, you've gone_ sketch'in too_ man-y__ time._______

G5            F#5              G5        A5          D   A
      Woo,_____ why don't_ ya give it a rest._______

G5               F#5 G5       A B5
      Why__________ must you find _______________________

Rhy.
Fig.4 Guitar solo

G   F#5        D5    A5 B5                              D5  A B
     another reason to cry?______
|--------------------------|-----------------|------------------|-----------------|
|--------------7--7--7-----|-----9---9-----9-|--9--99p7-9-7-----|-----7-999-7-9---|
|--------------7--7--7-----|-----9---9b----9b|--9--99p7-9-7-----|-----7-999-7-9-7-|
|-----------------------9--|---9---9---------|--------------9-7-|--9------------7-|
|--------------------------|-----------------|------------------|-----------------|
|--------------------------|-----------------|------------------|-----------------|

              D5       A5                                            D5    A5 B5
|--------------------------|----------------------------|------------------------|
|-9-----------------7---p__|_---------------------------|------------------------|
|-9b------7h9-9-----7--9-7\|-6--7--6--7---6h7p6---6----6|------------------------|
|----------------7---------|--------------------9----9--|--9--9---7--9---7-------|
|--------------------------|----------------------------|----------9---9---9--8--|
|--------------------------|----------------------------|------------------------|
             (end Rhy. Fig 4)                               w/Rhy. Fig 4
                                         D5     A5 B5
|------------------------------|---------------------|-------------7---10b---|
|------------------------------|---------------------|-------------10p7------|
|------------------------------|------------------10B|----10-----------------|
|-------b----------7-----------|----------------9----|-----------------------|
|--8b--7(7|7)p-5---7--5b-------|---------------------|-----------------------|
|----------------7-------7--7--|10b--7BBb-(7)\-------|-----------------------|

                                            D5    A5  B5
|------14-----17-14----------|---14-----17--17--1417--17B|-----17B---17B------|
|17-------1714-----17p14-17--|-----17p14--14--------14---|---------------17b--|
|----------------------------|---------------------------|--------------------|
|----------------------------|---------------------------|--------------------|
|----------------------------|---------------------------|--------------------|
|----------------------------|---------------------------|--------------------|

                              B                           C#5
                  While your breakin'down my back n'I been rackin' out_my brain, it don't
|--------------------------|-----------------------------|------------------------------|
|-16-----------------------|-----------------------------|------------------------------|
|----16-14-----------------|14/16------------------------|------------------------------|
|----------16p15p141214-12-|-----------------------------|------------------------------|
|--------------------------|-----------------------------|------------------------------|
|--------------------------|-----------------------------|------------------------------|

  Dv                                                           A
mat-ter how we make it 'cause it al -  ways ends the same.   You can
|-----------------------------------|---------------------------------|
|-7---------------------------------|---------------------------------|
|-7---------------------------------|---------------------------------|
|-7-------------------------------7-|(7)b-----------------------------|
|-5---------------------------------|---------------------------------|
|-----------------------------------|---------------------------------|
                                                  *Bend neck.
B
push it for more mile-age
          C#
but your flaps r' wear-in' thin
                Dv
and I__ could sleep on it til' morn-in,

but this night-mare nev-er ends,__
C#         B
don't for-get to call my law-yers
         C#
with ri-dic-u-lous_ de-mands
            Dv
an you can take the pi-ty so far,

but it's
                              C#
more than I__ can stand,_ 'Cause this
|-------------------------------------|
|(7)b---------------------------------|
|(7)b---------------------------------|
|-------------------------------------|
|-------------------------------------|
|-------------------------------------|
  B
couch-trip's get-tin' old-er,
         C#
tell me how long has it been,_
       Dv
'cause 5 years is for-ev-er

An you
                           C#
  have-n't grown up yet._
|---------------------------------|
|---------------------------------|
|-----9b------9-------------------|
|-----9b------9-------------------|
|-----------------5---5-----------|
|-------------------------5-------|

Chorus
w/Rhy. Figs. 2 & sA

A5    B5     F#5
You could be mine,____
            A5             B5          F#5
but you're way____________ out_____ of line.____
       A   A5
With your bitch slap rap-pin'
         B5
and your co-caine tongue,_

you get
F#5                                              A5
nuth    -   in'_____     done.        I  said,   you___________________
|-----------------------|-----------------------|-----------------------------|
|-----------------------|-----------------------|---------10------------------|
|14---------13----------|11--------9/11-11/14---|11----11----11---------------|
|-----------------------|-----------------------|-------------------9B(9)7----|
|12---------11----------|-9--------7/-9--9/12---|--------------------------9--|
|-----------------------|-----------------------|-----------------------------|

B5                         A5                       B5
could_____  be,             you_____________________ should______   be,
|--------------------------|------------------------|------------------------------|
|------10------------------|-----10-----------------|------------------------------|
|11-------11---------------|11------11-11-----------|------------------------------|
|--------------------------|------------------------|---------------·/.------------|
|-------------------9--9---|-----------------9--9---|------------------------------|
|--------------------------|------------------------|------------------------------|

A5
you_______________________
|--------------------------|--------|----------------------------------|
|------10------------------|--------|----------------------------------|
|11-------11-------11------|--------|----------------------------------|
|--------------------------|--------|----------------------------------|
|----------------9-----9---|--------|----------------------------------|
|--------------------------|--------|----------------------------------|

|--------------------------|-------------------------------|
|--------------------------|---14--16--14--16--14----------|
|--------------------------|---14--16--14--16--14----------|
|16----16----14--16----16--|-----------------------16--14--| x 4
|--------------------------|-------------------------------|
|--------------------------|-------------------------------|

|--------------------------|---17--19--17--19--17----------|
|19----19----17--19----19--|-----------------------19--17--|
|--------------------------|-------------------------------|
|--------------------------|-------------------------------| x 4
|--------------------------|-------------------------------|
|--------------------------|-------------------------------|