Guster - Lightning Rod Text Guitar Tab

Learn song with the online tabulature player
Lightning Rod by Guster

Intro

 C#m
|---x-----9------x-----9----||---x-----9------x--9-------||---x-----9------x-----9----||---x-----9------x--9-------|
|---x--12---9----x--12---9--||---x--12---9----x----12-12-||---x--12---9----x--12---9--||---x--12---9----x----12-12-|
|---x------------x----------||---x------------x----------||---x------------x----------||---x------------x----------|
|---11-----------11---------||---11-----------11---------||---11-----------11---------||---11-----------11---------|
|---11-----------11---------||---11-----------11---------||---11-----------11---------||---11-----------11---------|
|-9------------9------------||-9------------9------------||-9------------9------------||-9------------9------------|



Verse

 C#m                          G#m                          Am                           Em            G#m
|---x-----9------x-----9----||---x----4------------4-----||---x----5-------x----5-----||---x----2------------4-----|
|---x--12---9----x--12---9--||---x--7---4-----x--7---4---||---x--5---5-----x--5---5---||---x--2------------4-------|
|---x------------x----------||---x------------x----------||---x------------x----------||---x------------x----------|
|---11-----------11---------||---6------------6----------||---7------------7----------||---4------------6----------|
|---11-----------11---------||---6------------6----------||---7------------7----------||---4------------6----------|
|-9------------9------------||-4------------4------------||-5------------5------------||-0------------4------------|

 C#m                          G#m                          Am                           Em            G#m
|---x-----9------x-----9----||---x----4------------4-----||---x----5-------x----5-----||---x----2------------4-----|
|---x--12---9----x--12---9--||---x--7---4-----x--7---4---||---x--5---5-----x--5---5---||---x--2------------4-------|
|---x------------x----------||---x------------x----------||---x------------x----------||---x------------x----------|
|---11-----------11---------||---6------------6----------||---7------------7----------||---4------------6----------|
|---11-----------11---------||---6------------6----------||---7------------7----------||---4------------6----------|
|-9------------9------------||-4------------4------------||-5------------5------------||-0------------4------------|

 Fm
|---x----2------------2-----||---x----2------------2-----|
|---x--2---2--------2---2---||---x--2---2--------2---2---|
|---x------------x----------||---x------------x----------|
|---4------------4----------||---4------------4----------|
|---4------------4----------||---4------------4----------|
|-2------------2------------||-2------------2------------|

Chords

||C#m|C#m||G#m|G#m||Am||Am||Em|G#m||
||C#m|C#m||G#m|G#m||Am||Am||Em|G#m||

Repeat Verse and Chords