Guttermouth - Camp Fire Girl 62 Text Guitar Tab

Learn song with the online tabulature player
GUTTERMOUTH LYRICS

"Camp Fire Girl #62"

These notes are correct, there is a little bit else going on during the verse that
isn’t in there, but playing this way is pretty good.  Oh yea, and I think you can
get the strumming patterns yourselves by listening to the song.it’s pretty easy.
This is an awesome song!!  Hope you like it, it’s my first tab.

Verse
-----3--------------------------------------3-------------------------|
-----3--------------------------------------3-------------------------|
----------------------------------------------------------------------|
---------------------------------------------2------------------------|
-----2---------------------------------------3------------------------|
-----3----------------------------------------------------------------|x2

-------3---------------------------------------------------------------|
-------3---------------------------------------------------------------|
-----------------------------------------------------------------------|
-------2---------------------------------------------------------------|
-------3---------------------------------------------------------------|
-----------------------------------------------------------------------|x2

-----------------------------------------------------------------------|
-----------------------------------------------------------------------|
--------7--------------------------------------------------------------|
--------7--------------------------------------------------------------|
--------5--------------------------------------------------------------|
-----------------------------------------------------------------------|

Chorus
----------------------------------------------------------------------|
----------------------------------------------------------------------|
----------------5-----------5------9-------------7--------------------|
------5---------5-----------5------9-----7------7-----5---------------|
------5---------3-----------3------7-----7------5-----5---------------|
------3----------------------------------5------------3---------------|


Bridge
-----------7-7-7-8-7----7-7-7-8-7-------------------------------------|
-----------------------8--------------8-10-8-----8-8------------8-----|
------------------------------------------------9-------9-7----9------|
----------------------------------------------------------------------|
----------------------------------------------------------------------|
----------------------------------------------------------------------|

-----------7-7-7-8-7----7-7-7-8-7--------------------------------------|
-----------------------8--------------8-10-8-----8-10-8--8----8-10-8---|
------------------------------------------------9-------9---9----------|
-----------------------------------------------------------------------|
-----------------------------------------------------------------------|
-----------------------------------------------------------------------|

Bridge 2

------------------------------------------------------------------------|
------------------------------------------------------------------------|
------------------------------------------5-5-5-4-----------------------|
----5-5-4h5-4-5-7-5-----5-5-4h5-4-5-7-5-------------5-7----4-5-7-5------|
------------------------------------------------------------------------|
------------------------------------------------------------------------|  x2

Play this way
Verse
Chorus
Bridge
Verse
Chorus
Bridge
Verse-2nd part only
Bridge 2
Chorus