Guttermouth - Pee In The Shower Text Guitar Tab

Learn song with the online tabulature player
Guttermouth
Pee in the Shower
From the Album, Gusto
tabbed by senor enchilada

Chords used:

    A   E   C#   D   F#  B
e---------------------------|
b---------------------------|
g-------9---6----7----------|
d---7---9---6----7---4---9--|
a---7---7---4----5---4---9--|
E---5----------------2---7--|

riff 1:
e--------------------------------|
b--------------------------------|
g--------------------------------|
d--------------------------------|
a----------7-7-7---4-4-4---5--7--|
E--5-5-5-------------------------|
 pm••••••••••••••••••••••••••••••


riff 2:
e--------------------------------|
b--------------------------------|
g--------------------------------|
d--------------------------------|
a----------7-7-7---4-4-4---5p4p0-|
E--5-5-5-------------------------|
 pm••••••••••••••••••••••••••••••

Intro: A  E  C#  C#/D (X4)