Gwen Stefani - Cool Text Guitar Tab

Learn song with the online tabulature player
Song: Cool
Artist: Gwen Stefani
Album: Love.Angel.Music.Baby. (2004)
Bassist: Tony Reyes

Verse
G|-----------------|-----------------|
D|-----------------|-----------------|
A|-----------------|-----------------|
D|-0-0-0-0-0-0-0-0-|-5-5-5-5-5-5-5-5-|
   It's hard to remember how it felt before

G|-----------------|-----------------|
D|-----------------|-----------------|
A|-0-0-0-0-0-0-0-0-|-0-0-0-0-0-0-0-0-|
D|-----------------|-----------------|
   Now I found the love of my life...

G|-----------------|-----------------|
D|-----------------|-----------------|
A|-----------------|-----------------|
D|-0-0-0-0-0-0-0-0-|-5-5-5-5-5-5-5-5-|
   Passes things get more comfortable

G|-----------------|-----------------|
D|-----------------|-----------------|
A|-0-0-0-0-0-0-0-0-|-0-0-0-0-0-0-0-0-|
D|-----------------|-----------------|
   Everything is going right

Chorus
G|-----------------|-----------------|
D|-----------------|-----------------|
A|-----------------|-0-0-0-0-0-0-0-0-|
D|-5-5-5-5-5-5-5-5-|-----------------|
   And after all the obstacles

G|-----------------|-----------------|
D|-----------------|-----------------|
A|-----------------|-----------------|
D|-0-0-0-0-0-0-0-0-|-1-1-1-1-1-1-1-1-|
It's good to see you now with someone else

G|-----------------|-----------------|
D|-----------------|-----------------|
A|---------0-0-0-0-|-----------------|
D|-5-5-5-5---------|-0-0-0-0-1-1-1-1-|
   And it's such a miracle that you and me are still good friends

G|-----------------|-----------------|-----------------|-----------------|
D|-----------------|-----------------|-----------------|-----------------|
A|-----------------|-0-0-0-0-0-0-0-0-|-----------------|-----------------|
D|-5-5-5-5-5-5-5-5-|-----------------|-0-0-0-0-0-0-0-0-|-0-0-0-0-0-0-0-0-|
   After all that we've been through   I know we're cool

repeat Verse
repeat Chorus twice

Lyrics:
It's hard to remember how it felt before
Now I found the love of my life...
Passes things get more comfortable
Everything is going right

And after all the obstacles
It's good to see you now with someone else
And it's such a miracle that you and me are still good friends
After all that we've been through
I know we're cool

We used to think it was impossible
Now you call me by my new last name
Memories seem like so long ago
Time always kills the pain

Remember Harbor Boulevard
The dreaming days where the mess was made
Look how all the kids have grown
We have changed but we're still the same
After all that we've been through
I know we're cool

And I'll be happy for you
If you can be happy for me
Circles and triangles, and now we're hangin' out with your new girlfriend
So far from where we've been
I know we're cool

So, pretty simple stuff. If anyone has any corrections, I'd be glad to hear them, since 
pretty sure it's not 100% right, but I know it's at least pretty close.