Gym Class Heroes - Cupids Chokehold Text Guitar Tab

Learn song with the online tabulature player
/slide up
\slide down

Intro/Chorus - x2
G|------------------|
D|------------------|
A|------------------|
E|9-9-7-3/7\5-5-5-57|

Verse1
G|------------------------------|
D|------------------------------|
A|44-44-22-22-7-7--7-7-7-7-REST-|  X4
E|------------------------------|

then:
play the second set of each note as triplets
G|--------------------------------------|
D|--------------------------------------|
A|-44-444-22-222-7-7--7-7-7--7-7--7-7-7-|  X4
E|--------------------------------------|

Chorus x4

Verse2
G|-------------------------------|
D|-------------------------------|
A|-44-44-22-22-7-7--7-7--7-7-----|  X4
E|---------------------------REST|

G|-------------------------------------|
D|-------------------------------------|
A|-44-444-22-222-7-7-7-7-7--7-7--7-7-7-|  X2
E|-------------------------------------|

G|-----------------------------------------------------------------|
D|-------------------------------6-6-6-7-7-7-7-7-7-6-6-6-6-6-6-----|
A|-44-444-22-222-7-7--7-7-7-9-9-9-------------------------------7--|
E|-----------------------------------------------------------------|

REST
  REST
    REST

Chorus X 2

Bridge
G|-----------------------------------------------------|
D|-----------------------------------------------------|
A|4444-24-24-2-4444-24-24-2----------------------------| X3
E|--------------------------5555-45-45-5-4444-04-2h4-0-|

G|------------------------------------------|
D|------------------------------------------|
A|4444-24-24-2-4444-24-24-2-----------------|
E|--------------------------5555-45-45-REST-|

Chorus X4

End on C# and let ring