Gym Class Heroes - Peace Sign Index Down Text Guitar Tab

Learn song with the online tabulature player
Standard Tuning: G D A E
Band: Gym Class Heroes featuring Busta Rhymes
Album: The Quilt
Time: 4\4 or cut time if you want to

into: piano only

Travis verse: "Passion. And no advance because we make it happen..."
G|----------------------------0------------------------------------------|
D|------------------------------3-1--------------------------------------|
A|-3-3-3-3--2-2-2-2--1-1-1-1----------31----------1-1-1-1--3-3-3-3-3---1-|
E|----------------------------------------4-4-4-4--------------------4---|


"Don't let the tv mislead you..."
G|-----------------------------------------------------------------------|
D|---------------------------------3-3-3-3-3-3-3-3-----------------------|
A|-3-3-3-3-3-3-3-3-1-1-1-1-1-1-1-1--------------------------------1------|
E|--------------------------------------------------4-4-4-4-4-1-4--4-----|

"Put up the peace sign.."
*WHOLE NOTES* count to 4 before you hit the next note.
G|--------------------------------|
D|------------------3~------------|
A|-3~--------1~-------------------|
E|-------------------------4~-----|

Busta's verse: "I grind wth the force..."
G|----------------------------0------------------------------------------|
D|------------------------------3-1--------------------------------------|
A|-3-3-3-3--2-2-2-2--1-1-1-1----------31----------1-1-1-1--3-3-3-3-3---1-|
E|----------------------------------------4-4-4-4--------------------4---|

bridge: "look mom no hands!"
repeat verse.

go back to chorus and finsih with the verse