Hagibis - Legs Text Guitar Tab

Learn song with the online tabulature player
Intro: 

Rest for 8 bars, then

G|------------|------|
D|----------7-|------|
A|----5-57-5--|----5-|
E|-0h5--------|-0h5--| 4x

G|------------|------------|----------44-|-6---7----------|
D|----------7-|----------7-|-------77----|---7------------|
A|----5-57-5--|----5-57-5--|-55-77-------|-------------44-|
E|-0h5--------|-0h5--------|-------------|-------55-77----|

G|---------|---------|
D|---------|---------|
A|-5-5-6-6-|-7-7-----|
E|---------|-----5-5-| 3x

G|---------|---------|
D|---------|---------|
A|-3-3-3-3-|-3-3-3-3-|
E|---------|---------|

Verse I:

G|---------|---------|---------|---------|
D|---------|---------|---------|---------|
A|-5-5-5-5-|-6-6-6-6-|-7-7-7-7-|---------|
E|---------|---------|---------|-5-5-5-5-| 2x

Bridge:

G|---------|---------|---------|---------|
D|---------|---------|---------|---------|
A|---------|-5-5-5-5-|---------|-5-5-5-5-|
E|-3-3-3-3-|---------|-3-3-3-3-|---------|

G|---------|---------|---------|---------|---------|---------|
D|---------|---------|---------|---------|---------|---------|
A|-7-7-7-7-|---------|-7-7-7-7-|---------|-7-7-7-7-|-7-7-7-7-|
E|---------|-5-5-5-5-|---------|-5-5-5-5-|---------|---------|

G|---------|---------|
D|---------|---------|
A|---------|---------|
E|-5-5-5-5-|-5-5-5-5-|

Chorus:

G|--7-7-8-8-|--9-9-----|--7-7-8-8-|--9-9-----|--7-7-8-8-|--9-9-----|
D|----------|------7-7-|----------|------7-7-|----------|------7-7-|
A|-5-5-6-6--|-7-7------|-5-5-6-6--|-7-7------|-5-5-6-6--|-7-7------|
E|----------|-----5-5--|----------|-----5-5--|----------|-----5-5--|


G|--7-7-7-7-|----------|
D|----------|--7-7-7-7-|
A|-5-5-5-5--|----------|
E|----------|-5-5-5-5--|

	(Repeat entire Chorus pattern)

Adlib:

G|---------|---------|
D|---------|---------|
A|-5-5-6-6-|-7-7-----|
E|---------|-----5-5-| 3x

G|---------|---------|
D|---------|---------|
A|-3-3-3-3-|-3-3-3-3-|
E|---------|---------|

Verse II: (Repeat Verse I pattern)

Bridge: (Repeat Bridge pattern)

Repeat Chorus

Bridge:

G|--------|------|
D|---3----|------|
A|-5---53-|-535--|
E|--------|----5-| 10x

G|-----------|---|
D|-----------|---|
A|-5----3335-|---|
E|-----------|---| 8x

G|---------|---------|---------|---------|
D|---------|---------|---------|---------|
A|---------|---------|-5-5-5-5-|-5-5-5-5-|
E|-3-3-3-3-|-3-3-3-3-|---------|---------| 2x

	or

	G|-----------|-----------|---7----7--|---7----7--|
	D|---5----5--|---5----5--|-----------|-----------|
	A|-----------|-----------|-55-5555-5-|-55-5555-5-|
	E|-33-3333-3-|-33-3333-3-|-----------|-----------| 2x

	
G|-----------|---5----5--|-----------|-----------|
D|---5----5--|-----------|---3----3--|---8----8--|
A|-----------|-33-3333-3-|-----------|-----------|
E|-33-3333-3-|-----------|-11-1111-1-|-66-6666-6-|

G|-----------|---5----5--|-----------|-----------|
D|---5----5--|-----------|---3----3--|---7----5--|
A|-----------|-33-3333-3-|-----------|-----------|
E|-33-3333-3-|-----------|-11-1111-1-|-55-5555-5-|

Outro: Repeat Chorus pattern, to fade