Håkan Hellström - Kann Ingen Sorg For Mig Goteborg Text Guitar Tab

Learn song with the online tabulature player
Håkan när han är som bäst ;) 


INTRO

E |----------------|----------------|-------------------------|
A |----------------|----------------|-------------------------|
D |----------------|-------------10-|-10----------------------| x2
G |-------------9--|-9--------------|-------------5--7--9--10-|
B |-8-8-------8----|---10h12--8-----|-----8h10-8--------------|
E |----8h10-8------|----------------|-------------------------| 


MELLANSPEL (höjt ett tonsteg)

E |----------------------|----------------|----------------------------|
A |----------------------|----------------|----------------------------|
D |----------------------|-------------12-|-12-------------------------| x2
G |-------------------11-|-11-------------|---------------7--9--11--12-|
B |-10-10----------10----|---12h14--10----|-----10h12-10---------------|
E |-------10h12-10-------|----------------|----------------------------| 

Har inget mer att säga ;) spela,spela