Hale - Here Tonight Text Guitar Tab

Learn song with the online tabulature player
intro
]---*8---*8---*8-------------[ *(Strumming part)
]---*8---*8---*8-------------[
]---*0---*0---*0-------------[
]----------------0-0-0-0-0-0-[
]-----------0----8-7-8-7-8-7-[
]-8----7---------------------[

verse
]---*8---*8---*8---*8---*8---*8---*8--*7-[
]---*8---*8---*8---*8---*8---*8---*8--*8-[
]---*0---*0---*0---*0---*0---*0---*0--*0-[
]-------------------------------0--------[
]-----------0----7----8----7-------------[
]-8----7---------------------------------[

chorus
]---*8---*8---*8---*8---*8---*8---*8---*8-[
]---*8---*8---*8---*8---*8---*8---*8---*8-[
]---*0---*0---*0---*0---*0---*0---*0---*0-[
]-----------------------------------------[
]-----------0----8--------------7----8----[
]-8----7--------------8----7--------------[