Hall And Oates - Sarah Smile Text Guitar Tab

Learn song with the online tabulature player
Pretty shure its correct.  Timing might be off, but you should get in after listening to it...


E---------------------------------10--|
B-10h12-10---------------8/10\8-------|
G----------9h11-9--7-9-7--------9/11--|
D-------------------------------------|
A-------------------------------------|
E-------------------------------------|

E--------------------------------------------10-12-12/14-|
B-10h12------------------------------10-10-12------------|
G-------9h11h9\7-9h7--7h9-7--7-9-9/11--------------------|
D--------------------9------9----------------------------|
A--------------------------------------------------------|
E--------------------------------------------------------|