Halo Friendlies - Just Like You Text Guitar Tab

Learn song with the online tabulature player
Band - Halo Friendlies
Song - Just Like You (Only Better)
Album - Get Real
Tuning - Standard

Intro/Verse


e:-------------------:
b:-------------------:
g:-9--9-9--9-9--11-9-:    Repeat as many times needed during verse
d:-9--9-9--9-9--9--9-:
a:-7--7-7--7-7--7--7-:
E:-------------------:

Chorus

"I Don't Need Someone..."

e:-----------------------------------:
b:-----------------------------------:
g:-----------------9--9-9--9-9--11-9-:
d:-7-7-7-7-9-9-9-9-9--9-9--9-9--9--9-:
a:-7-7-7-7-9-9-9-9-7--7-7--7-7--7--7-:
E:-5-5-5-5-7-7-7-7-------------------:

Third Time round on the Chorus is goes

"Understand...That I'm Just Like You"

e:-----------------:               
b:-----------------:
g:-----------------:
d:-11-9-7~~~-7---9-:
a:-11-9-7~~~-7---9-:
E:-9--7-5~~~-5---7-:

Back To Verse

Bridge

"I'll Never Let You Down..."

e:-------------------------------------------------------:
b:-------------------------------------------------------:
g:-------------------------------9-9-9-9-9-9-------------:
d:-11-11-11-11-11-11-9-9-9-9-9-9-9-9-9-9-9-9-7-7-7-7-7-7-:
a:-11-11-11-11-11-11-9-9-9-9-9-9-7-7-7-7-7-7-7-7-7-7-7-7-:
E:-9--9--9--9--9--9--7-7-7-7-7-7-------------5-5-5-5-5-5-:

Back To Chorus

Any Corrections.....Doms_BeerCo@Hotmail.com