Haluk Levent - Anlasana Text Guitar Tab

Learn the song with the online tablature player
Am
Kendimi esir ald?m
G            F Am
?almad? yine telefonlar
Am
Al???r?m sanm??t?m
G           F Am
Y?re?inde sanc?n var
Dm             Am
Gel etme nazl? g?ne?
Dm           Am
Sensin g?l?me e?
G    F G        Am
Beni biraz anlasana
Dm            Am
?l?r?m a?k?na yar
Dm              Am
?l?r?m diyar diyar
G    F G        Am
Beni biraz anlasana
C Am   G Am  Am
Offf sar?l bana
G    F G       Am
Beni biraz anlasana

Solo
(1 tekrardan sonra bu solo giriyor)

                   Am       G
|---------------------------8-7~--8-------------------------|
|----------8---8-7-------------------8-8~-------------------|
|------------9-----9~~--------------------------------------|
|--7-9-10---------------------------------------------------|
|-----------------------------------------------------------|
|-----------------------------------------------------------|

 Dm                                      Am
|----13----12---------------------------------------------------|
|-10----10----10~-----13----12----------------------------------|
|------------------10----10----10~--9--7—9s10--9-7-7s9----|
|---------------------------------------------------------------|
|---------------------------------------------------------------|
|---------------------------------------------------------------|

  Am                           G
|-15-15~-------------------------------------------------|
|--------15s17-15---13s15-13---12s13-12------------------|
|---------------------------------------12--14-12----12~-|
|-------------------------------------------------12-----|
|--------------------------------------------------------|
|--------------------------------------------------------|

  Dm
|---------------13-17-13-------------15------------------|
|---------15-17----------15------------------------------|
|------14-------------------14----14----14---------------|
|-14-15------------------------15----------15------------|
|--------------------------------------------------------|
|--------------------------------------------------------|

  Am
|--------------------------------------------------------|
|----------------------15--------------------------------|
|-------------14-16-17----17-----------------------------|
|-s/14--15-17----------------17-17~----------------------|
|--------------------------------------------------------|
|--------------------------------------------------------|

Am                   )
Offf sar?l bana      )  x2 (Final)
G                Am  )
Beni biraz anlasana  )

Submitted By DJ. Kurt Promix