HammerFall - Rebel Inside Text Guitar Tab

Learn song with the online tabulature player
Hammerfall - Rebel Inside

this is only the solo and only the 1st guitar. hope i did right -1st tab i ever wrote-
have fun

Solo

D#----------------------------------------------------------------------------------------14b15br14-12\0--|
A#-10-----7---8---10-10-----7---8---10-10-h12-12-12-12-h14-14-h15-15-15-15-14-12-12-14-15-----------------|
F#----7-7---7---7-------7-7---7---7-----------------------------------------------------------------------|
C#--------------------------------------------------------------------------------------------------------|
G#--------------------------------------------------------------------------------------------------------|
D#--------------------------------------------------------------------------------------------------------|


-------------------------------------------------------------------------|
-------------------------------------------------------------------------|
-------------------------------------------------------------------14-14-|
-7-9-7-9-11-9-11-12--11-12-11-12-14-12-14-16--14-16-14-16-17-16-17-------|
-------------------------------------------------------------------------|
-------------------------------------------------------------------------|


--------------------------------12-14br12----12-----------------------------------------------------------|
-12-12-14-15r14-12-----12-12-13----------15----14--12-12-14-15br14-12----12-------------------------------|
-------------------12------------------------------------------------12-----14-h16-p14-11-11-h14-p11-/9-9-|
----------------------------------------------------------------------------------------------------------|
----------------------------------------------------------------------------------------------------------|
----------------------------------------------------------------------------------------------------------|

Tablature Legend
----------------
L - tied note
x - dead note
g - grace note
(n) - ghost note
> - accentuded note
NH - natural harmonic
AH - artificial harmonic
TH - tapped harmonic
SH - semi harmonic
PH - pitch harmonic
h - hammer on
p - pull off
b - bend
br - bendRelease
pb - preBend
pbr - preBendRelease
brb - bendReleaseBend
\n/ - tremolo bar dip
\n - tremolo bar dive
-/n - tremolo bar Release up
/n\ - tremolo bar inverted dip
/n - tremolo bar return
-\n - tremolo bar Release down
S - shift slide
s - legato slide
/ -  slide into from below or out of upwards
\ -  slide into from above or out of downwards
~ - vibrato
W - wide vibrato
tr - trill
TP - tremolo picking
T - tapping
S - slap
P - pop
< - fade in
^ - brush up