Hank Williams - I Saw The Light Text Guitar Tab

Learn song with the online tabulature player
I Saw The Light Melody/Solo

E ----------------------------------------------------------------------------------|
B ----------------------------------------------------------------------------------|
G ----------------------------------------------------4-4---4---4/7-9-7p0--4-4------|
D ------5-5---------5--7-5---5-5-7-5------------5-5-7----7----5-----------------7-5-|
A 5-5-7-----7-5-5-7--------7---------7-5--5-5-7-------------------------------------|
E ----------------------------------------------------------------------------------|

E ----------------------------------------------------------------------------------|
B ----------------------------------------------------------------------------------|
G 4-4---4---4-4---4-------------------------------------4-4---4---4/7-9-7p0-4-4-----|
D ----7---5-----7---5--7-5----5-5-7-5-------------5-5-7-----7---5---------------7-5-|
A -------------------------7----------7-5--5-5-7------------------------------------|
E ----------------------------------------------------------------------------------|

I really don't know what you want to call this.  It isn't the melody or the solo but it 
good to play if you like the song.  I'm not to sure about the 7p0 so if you have a 
way of playing please email me.  Hope you enjoy it!