Hannah Montana - One In A Million Text Guitar Tab

Learn song with the online tabulature player
Intro

e|-2—9—4-7-6-4-2-4-6-7-2-1-2-1-9-4-7-6-4-2-4-6-2----------|
B|--------------------------------------------------------|
G|--------------------------------------------------------| 
D|--------------------------------------------------------|
A|--------------------------------------------------------|
E|--------------------------------------------------------|

Verse 1

e|-1-2-1-2-2-1-2-1-2-2—1-2-4-6-7-6-1-2-1-2-2-1-2-1-2-2-1-2|
B|--------------------------------------------------------|
G|--------------------------------------------------------| 
D|--------------------------------------------------------|
A|--------------------------------------------------------|
E|--------------------------------------------------------|

e|-4-6-2-9-4-7-6-4-2-4-6-7-2-1-2-1-9-2-9-4-7-6-4-2--------|
B|--------------------------------------------------------|
G|--------------------------------------------------------| 
D|--------------------------------------------------------|
A|--------------------------------------------------------|
E|--------------------------------------------------------|

Chorus

e|---2---6-------9---2---6-----9-2-9-7-6-4-2-2-1-2--------|
B|-4---4---4-4-4---4---4---4-4----------------------------|
G|--------------------------------------------------------| 
D|--------------------------------------------------------|
A|--------------------------------------------------------|
E|--------------------------------------------------------|

e|-2-2-1-2-2-4-6-7-6-6-6-4-2-4-2-6-7-6-4-4-6-4-2-4-2-1-2-2|
B|--------------------------------------------------------|
G|--------------------------------------------------------| 
D|--------------------------------------------------------|
A|--------------------------------------------------------|
E|--------------------------------------------------------|

e|-1-2-2-2-1-2-2-2-1-2-2-2-1-2-2-2-1-2-2-2-6-6-6-7-6-4-2-2|
B|--------------------------------------------------------|
G|--------------------------------------------------------| 
D|--------------------------------------------------------|
A|--------------------------------------------------------|
E|--------------------------------------------------------|

e|-4-2-----|
B|---------|
G|---------| 
D|---------|
A|---------|
E|---------|

Verse 2

e|-1-2-1-2-2-1-2-1-2-2—1-2-4-6-7-6-1-2-1-2-2-1-2-1-2-2-1-2|
B|--------------------------------------------------------|
G|--------------------------------------------------------| 
D|--------------------------------------------------------|
A|--------------------------------------------------------|
E|--------------------------------------------------------|

e|-4-6-7-6-2-2-9-9-7-7-6-6-4-2-9-9-7-7-6-7-9-9------------|
B|--------------------------------------------------------|
G|--------------------------------------------------------| 
D|--------------------------------------------------------|
A|--------------------------------------------------------|
E|--------------------------------------------------------|

Chorus

e|---2---6-------9---2---6-----9-2-9-7-6-4-2-2-1-2--------|
B|-4---4---4-4-4---4---4---4-4----------------------------|
G|--------------------------------------------------------| 
D|--------------------------------------------------------|
A|--------------------------------------------------------|
E|--------------------------------------------------------|

e|-2-2-1-2-2-4-6-7-6-6-6-4-2-4-2-6-7-6-4-4-6-4-2-4-2-1-2-2|
B|--------------------------------------------------------|
G|--------------------------------------------------------| 
D|--------------------------------------------------------|
A|--------------------------------------------------------|
E|--------------------------------------------------------|

e|-1-2-2-2-1-2-2-2-1-2-2-2-1-2-2-2-1-2-2-2-6-6-6-7-6-4-2-2|
B|--------------------------------------------------------|
G|--------------------------------------------------------| 
D|--------------------------------------------------------|
A|--------------------------------------------------------|
E|--------------------------------------------------------|



e|-4-2-----|
B|---------|
G|---------| 
D|---------|
A|---------|
E|---------|