Hanson - Breaktown Text Guitar Tab

Learn song with the online tabulature player
Tuning: Standard

If you have any corrections or comments please e-mail me.

------------------------------------------------------------------|
------------------------------------------------------------------|
-8-11-8-11-8-10-6-7-8-10-11-8-8-10-11-10-3---8-10-11-13-13/15-11--|
-------------------------------------------4----------------------|
------------------------------------------------------------------|
------------------------------------------------------------------|

-----------------------------------------------------------------|
-----------------------------------------------------------------|
-15---15---16---15---18-18-17-17-16-16-15------------------------|
---13---13---13---13---------------------------------------------|
-----------------------------------------------------------------|
-----------------------------------------------------------------|