Hanson - Crazy Beautiful Text Guitar Tab

Learn the song with the online tablature player
Crazy Beautiful
by Matt Donley

First of all, please be aware that this song has been transposed to a LOWER key that way
can sing it easier. Taylor has a

much better vocal range than I do! So, because of that, you can not expect to play along
the song as you play the

guitar. You will be playing in a lower key!

Second of all, this song was written and played on the piano, it is not meant to be
on the guitar. I love this song so

I decided to make my own version of this song for guitar. It is my interpretation of
Beautiful if it were to be played

Enjoy this version of Crazy Beautiful!

INTRO
E---------------------------------------------------\
G--------7---5-------5-----------5-----------0------\
B------------------------7-----------7-----------6--\
D----7-----------7-----------7-----------7----------\
A--0---0---0---0---0---0---0---0---0-------5---5----\
D--------------------------------------0------------\

VERSES
E--------------------------\
G-5-5---5-5---5-5---500000-\
B-6-6---6-6---6-6---666666-\
D-7-7---7-7---7-7---777777-\
A-000000000000000000055555-\
D--------------------00000-\

PRE-CHORUS
E-----------\
G--------5--\
B--------6--\
D-7------7--\
A-5------0--\
D-5---------\

CHORUS
E--------------\
G-5------------\
B-6------------\
D-7----7----7--\
A-0----5----5--\
D------5----0--\

BRiDGE
E-------------------------------------------------\
G-------------7--7--7--7--------------------------\
B-------------7--7--7--7--2--2--2--2--------------\
D-2--2--2--2--5--5--5--5--2--2--2--2--5--5--5--5--\
A-2--2--2--2--------------0--0--0--0--5--5--5--5--\
D-2--2--2--2--------------------------5--5--5--5--\

E-------------------------------------------------------------------------\
G-------------7--7--7--7--------------------------------------------------\
B-------------7--7--7--7--------------2--2--2--2--------------2--2--2--2--\
D-2--2--2--2--5--5--5--5--5--5--5--5--2--2--2--2--5--5--5--5--2--2--2--2--\
A-2--2--2--2--------------5--5--5--5--0--0--0--5--5--5--5--5--0--0--0--0--\
D-2--2--2--2--------------5--5--5--5--------------5--5--5--5--------------\

E-------------------------------------------------------------------------\
G---------12----------------12-----------------10---------------10--------\
B---11----------11----11----------11-----11----------11---11----------11--\  4X's
D------12----12----------12----12-----------12----12---------12----12-----\
A-------------------------------------------------------------------------\
D-9----------------11------------------0----------------0-----------------\

You can play the intro throughout the verses, as does taylor on the piano. I find it
to play the verse part and it

allows me to play more dynamically, instead of just picking individual notes in the
part.

INTRO

VERSE
Liquid, melancholy dreams
Tell me what it means
                    PRE-Chorus
'Cause you drive me crazy
VERSE
Driftwood, won't you float me down your stream
Tell me what it means
                    PRE-Chorus
'Cause you drive me crazy
'Cause you're crazy beautiful
'Cause you're crazy beautiful
'Cause you're crazy beautiful

CHORUS
Don't go looking in my eyes tonight
Don't go telling me lies tonight
Don't go promising the skies tonight
            PRE-Chorus
When you're crazy
'Cause you're crazy beautiful
'Cause you're crazy beautiful

VERSE
Listen, all I need is you
Won't you tell me what to do
'Cause you drive me crazy
Baby, is it pulling on your heart
Is it tearing you apart

'Cause you drive me crazy
'Cause you're crazy beautiful
'Cause you're crazy beautiful

Don't go looking in my eyes tonight
Don't go telling me lies tonight
Don't go promising the skies tonight
When you're crazy
'Cause you're crazy beautiful
'Cause you're crazy beautiful
'Cause you're crazy beautiful

BRIDGE
If you don't need me I think I'll go
If you don't want me tell me no
If you don't need me I think I'll go
Oooh, Oooh, Ooooooh

Chorus
Don't go looking in my eyes tonight
Don't go telling me lies tonight
Don't go promising the skies tonight
When you're crazy
'Cause you're crazy beautiful
'Cause you're crazy beautiful
'Cause you're crazy beautiful