Hanson - Yearbook Text Guitar Tab

Learn song with the online tabulature player
E:-3-3-1-1-----------------------------------------3-3-1-1------------------|
B:---------4-4--1-3-4-3-1--1--3-4-3-1---------1------------4-4--1-3-4-3-1---|
G:------------------------3-----------3-3-0-3-----------------------------3-|
D:--------------------------------------------------------------------------|
A:--------------------------------------------------------------------------|
E:--------------------------------------------------------------------------|

E:------------------:
B:-1--3-4-3-1---1---:
G:------------3-----:
D:------------------:
A:------------------:
E:------------------: