Harry Chapin - Six String Orchestra Text Guitar Tab

Learn song with the online tabulature player
Six String Orchestra
                                           Harry Chapin

G -----0-1-----------------5-7-3-3321---1-1-0------------------------------|
D -1-3------1--3(s)5-4-3---------------1---------3-1-0--0--------- -5-4-3--|
A ---------------------------------------------------------3-2(h)3---------|
E ---------4---------------------------------------------------------------|

G ------------------------|
D ----------1-0-1---1-----|
A ------3-1--------1--1---|
E-------------------------|


G --------0-1----1-1-0---------------0-1-------------5-7-3--3321---1-1-0-------|
D -1-1-3-----1-1------3-1----1-1-3---- --1-3(s)5-4-33--------------1--------3--|
A ------------------------1-1-----------4--------------------------------------|
E -----------------------------------------------------------------------------|

G-------------------------1-0--|
D--1-0--0---3(s)5-4-3----------|
A---------3-----------3-1------|
E------------------------------|

Hope you like it! Thanks!