Hawk Nelson - Crazy Love Text Guitar Tab

Learn the song with the online tablature player
Verse x2
|--------------------------------------------------------|
|--------------------------------------------------------|
|--------------------------------------------------------|
|---7-------------3-------------10----------5------------|
|---7-------------3-------------10----------5------------|
|---5-------------1-------------8-----------3------------|

Chorus x2
|--------------------------------------------------------|
|--------------------------------------------------------|
|---------44-5--5555-5-----------------------------------|
|--7777-7-44-5--5555-5-55-3-33333333-55555555------------|
|--7777-7-22-3--3333-3-55-3-33333333-55555555------------|
|--5555-5--------------33-1-11111111-33333333------------|

Intro Part 1 x1

Verse x2

Chorus x2

Solo x2
|--------------------------------------------------------|
|--------------------------------------------------------|
|--------------------------------------------------------|
|--3----------10---------7--------------5----------------|
|--3----------10---------7--------------5----------------|
|--1----------8----------5--------------3----------------|

Bridge x1
|--------------------------------------------------------|
|--------------------------------------------------------|
|--------------------------------------------------------|
|---7-------------3-------------10----------5------------|
|---7-------------3-------------10----------5------------|
|---5-------------1-------------8-----------3------------|

Chorus x6

Outro x 2

|--------------------------------------------------------|
|--------------------------------------------------------|
|---------44-5--5555-5-----------------------------------|
|--7777-7-44-5--5555-5--55-3-33333333-55555555-----------|
|--7777-7-22-3--3333-3--55-3-33333333-55555555-----------|
|--5555-5---------------33-1-11111111-33333333-----------|