Hawk Nelson - One Little Miracle Text Guitar Tab

Learn song with the online tabulature player
-----------------------------------------------------------------------
                   One Little Miracle - Hawk Nelson
-----------------------------------------------------------------------
Song: One Little Miracle
Artist: Hawk Nelson
Album: Hawk Nelson Is My Friend
Both Guitars Standard Tuning

Intro: 
Gtr. 1
e|----------------------------------|
B|----------------------------------|
G|--5---------------------------5~--|
D|--5-x15--3------7------3------5~--|
A|--3------3-x15--7-x15--3-x15--3~--|
E|---------1------5------1----------|

Gtr. 2
e|---------------------------------|
B|---------------------------------|
G|---------------------------------|
D|-9-10-3-----------9-10-12--5-10--|
A|---------2-3-2-0-----------------|
E|---------------------------------|

Verse:   this is kinda played in the background
e|---------3---------3-3-------------3--|
B|-------3---------5-----3---------3----|
G|-----5---------5---------5-----5------|
D|---5---------5---------------5--------|
A|-3---------3---------------3----------|
E|--------------------------------------|

After he says "Are you with me?"
Gtr. 2   then Gtr. 1 plays
e|---------| |---------------|
B|------8--| |---------------|
G|--4-5----| |---------------|
D|---------| |---------------|
A|---------| |--2-3-2-0------|
E|---------| |----------0-1--|

Chorus:
Gtr.1
e|--------------------------|
B|--------------------------|
G|--------------5-----------|
D|--3-----5-----5-x8--7-----|
A|--3-x8--5-x8--3-----7-x8--|
E|--1-----3-----------5-----|

Gtr. 1
e|-------------------------------|
B|-------------------------------|
G|-------------------------------|
D|--3-----5-----575757-----------|
A|--3-x8--5-x8--575757-0022-320--|
E|--1-----3-----353535-----------|

Gtr. 1
e|--------------------------------------|
B|--------------------------------------|
G|--------------5-----------------------|
D|--3-----5-----5-x8--7-----3-----5-----|
A|--3-x8--5-x8--3-----7-x8--3-x8--5-x8--|
E|--1-----3-----------5-----1-----3-----|

Gtr. 2
e|-----------------------------------------------------|
B|--8-----8-8-88-----8-8-88-----888-10-8-6-8-5-6-5-----|
G|----5/4--------5/4--------5/4--------------------7-5-|
D|-----------------------------------------------------|
A|-----------------------------------------------------|
E|-----------------------------------------------------|X2

Gtr. 2
e|----------------------------------------------------|
B|--8-----8-8-88-----8-8-88------8-8-88-----8-8-88----|
G|----5/4--------5/4--------5/4---------5/4--------5/4|
D|----------------------------------------------------|
A|----------------------------------------------------|
E|----------------------------------------------------|

Gtr. 2
e|------------------------|
B|--888-10-8-6-8-5-6-5----| After this last note
G|---------------------7--| it goes right into the
D|------------------------| first note of the post-
A|------------------------| chorus, which is 5.
E|------------------------|

Post-Chorus:
Gtr. 1
e|--------------------|
b|--------------------|
G|--5-------------5~--|
D|--5-x16--7------5~--|
A|--3------7-x16--3~--|
E|---------5----------|

Gtr. 2
e|---------------------|
B|-------5-5/10-12/13--| At the end you can
G|--5~-7---------------| hear him slide from
D|---------------------| 12 to 13
A|---------------------|
E|---------------------|

Verse 2:
Gtr. 1   this is also kind of in the background and
e|----------3-------------3-3-----3----| it was hard to 
B|--------3-----------3-------3-----3--| hear so it's not
G|------5---------------5-------5------| 100%
D|----5-----------5-5------------------|
A|--3---------3-3----------------------|
E|-------------------------------------|

Gtr. 2 plays this right before the chorus
e|---------------|
B|---------------|
G|---------------|
D|---------------|
A|--2-3-2-0------|
E|----------0-1--|

Chorus

Bridge:
Gtr. 1
e|--------------------------|
B|--------------------------|
G|--------------------------|
D|--8-----7-----6-----8-----|
A|--8-x8--7-x8--6-x8--8-x8--|
E|--6-----5-----4-----6-----|

Gtr. 2
e|--------------------------------------------|
B|--5555-10-10-10-9-5555-10-9-7-5-8-7-5-3-7b--|
G|--------------------------------------------|
D|--------------------------------------------|
A|--------------------------------------------|
E|--------------------------------------------|

Solo:
Gtr. 1
e|------------------------------------|
B|------------------------------------|
G|----------5555----------------------|
D|--33335555555577773333555577777777--|
A|--33335555333377773333555577777777--|
E|--11113333----55551111333355555555--|

Gtr. 2
e|---------------------------15-------15-13-12----12-----|
B|--17~-17-15-13-15-13-12-13----12-13----------15----13--|
G|-------------------------------------------------------|
D|-------------------------------------------------------|
A|-------------------------------------------------------|
E|-------------------------------------------------------|

e|-----------------------------------------------|
B|-----------------------15b-13----15b-13-15-13--|
G|-------5-7b-5---5-7b~---------14---------------|
D|--55-7--------7--------------------------------|
A|-----------------------------------------------|
E|-----------------------------------------------|

Chorus

Ending:
e|--------------------|
B|--------------------|
G|----------------5~--|
D|--33-33--33-33--5~--|
A|--33-33--33-33--3~--|
E|--11-11--11-11------|

That's it, please feel free to comment and rate.