Hawk Nelson - Someone Else Before Text Guitar Tab

Learn song with the online tabulature player
Hey i'd just like to point out that the majority of this was originally tabbed by 
(he tabbed Version 1).  Pick whichever one u want, i just like power chords better than drop d 
i figured others probably would too.

This song has distorion the entire time unless otherwise noted.

|Key:           |
|...= soft      |
|***= palm mute |


Intro
                                                     Instead of 10/10/8...
e|------------------------------------------------|  |-------| This is an
B|------------------------------------------------|  |--6----| alternative
G|-6666xx8888xx10101010xx66666666xx5555xx------6--|  |--5----| power chord,
D|-6666xx8888xx10101010xx66666666xx5555xx88-4--6--|  |--3----| but is a little
A|-4444xx6666xx8-8-8-8-xx44444444xx3333xx88-4--4--|  |-------| harder to
E|---------------------------------------66-2-----|  |-------| switch to/from.

(the x's r fairly soft)

Verse 1

e|--------------------------------------------|
B|--------------------------------------------|
G|-------------66---66---66---66--66-55-------|
D|-(hold--------------------------66-55-88-4--|
A|--last--------------------------44-33-88-4--|
E|--chord)------------------------------66-2--|

e|--99----99----99--9------|
B|-9--99-9--99-9--99-------|
G|-------------------------| 2x
D|-------------------------|
A|-------------------------|
E|-------------------------|

Chorus 1

e|------------------------------------------|
B|------------------------------------------|
G|------66------------66--55----------------|
D|-777--66-66--88--4--66--33--88--4---------|
A|-777--44-66--88--4--44--33--88--4---------|
E|-555-----44--66--2----------66--2---------|

e|--------------------------------------|
B|--------------------------------------|
G|-6666888810101010666666665555------6--|
D|-666688881010101066666666555588-4--6--|
A|-444466668-8-8-8-44444444333388-4--4--|
E|-----------------------------66-2-----|


Pre Verse 2

e|--------------------------------------------------|
B|--------------------------------------------------|
G|-xx-66-------------------xx-66--------------------|
D|-xx-44-xx-66-xx-44-xx-88-xx-66---xx-66-xx-88--4-4-|
A|-xx-44-xx-66-xx-44-xx-88-xx-44---xx-66-xx-88--4-4-|
E|-------xx-44-xx-22-xx-66---------xx-44-xx-66--2-2-|

Verse 2

e|------------------------------------------------|
B|------------------------------------------------|
G|----6666------------------6666-5555------xx6xx6-|
D|----6666-6666--4444-88/66-6666-5555-8888-xx6xx6-|
A|----4444-6666--4444-88/66-4444-3333-8888-xx4xx4-|
E|---------4444--2222-66/44-----------6666--------|
  .................................................

This part gets confusing...

Guitar 1:
e|--------------------|------------------------------|
B|---up & down strokes|-----only down strokes--------|
G|---6----------------|-----6------------------------|
D|---6-(x56)----------|-----6-(x16)------------------|
A|---4----------------|-----4------------------------|
E|--------------------|------------------------------|

Guitar 2 (lead):
e|------------------------|-----------------------|
B|-(after 48 u&d strokes)-|-----------------------|
G|-----------10-(8x)------|--8-(8x)-11-(8x)-------|
D|------------------------|-----------------------|
A|------------------------|-----------------------|
E|------------------------|-----------------------|

Pre Chorus 2

e|-------------------------------------------------------------------------|
B|-------------------------------------------------------------------------|
G|-66666666----------------------------66666666-55555555-------------------|
D|-66666666-66666666-88888888-44444444-66666666-55555555-88888888-44444444-|
A|-44444444-66666666-88888888-44444444-44444444-33333333-88888888-44444444-|
E|----------44444444-66666666-22222222-------------------66666666-22222222-|

Chorus 2

e|------------------------|
B|------------------------|
G|---6--6--6--6--6--6--6--|
D|--6--6--6--6--6--6--6---|
A|-4--4--4--4--4--4--4----|
E|------------------------|

e|-------------------------------------------------|
B|-------------------------------------------------|
G|-xxxxxxxx-6666----------------6666-5555----------|
D|-xxxxxxxx-6666-6666-8888-4444-6666-5555-888-4----|
A|-xxxxxxxx-4444-6666-8888-4444-4444-3333-888-4----|
E|---------------4444-6666-2222-----------666-2----|

Bridge (Phone Call)

Guitar 1:
e|-part1-|--------------------|
B|-------|--------------------|
G|-6666--|--after-------5555--|
D|-6666--|--gtr.2------45555--|
A|-4444--|--finishes:--43333--|
E|-------|-------------2------|

Guitar 2:
e|-----------------------|
B|-----------------------|
G|-after-----------------|
D|-gtr.1-------6666------| x13
A|-finishes--------4444--|
E|--part1:---------------|
**************************

Chorus 3

E|-----------------------------------------------------------------------------|
B|-----------------------------------------------------------------------------|
G|-6666----------------6666-5555----------6666----------------6666-5555--------|
D|-6666-6666-8888-4444-6666-3333-88-4-777-6666-6666-8888-4444-6666-5555-88-4---|
A|-4444-6666-8888-4444-4444-3333-88-4-777-4444-6666-8888-4444-4444-3333-88-4---|
D|------4444-6666-2222-----------66-2-555------4444-6666-2222-----------66-2---|

Outro

Guitar 1:
E|-----------------------------|--Part2--|                    |---|
B|-----------------------------|---------|                    |---|
G|-66--66666-------------------|---------| Repeat, ending on: |-6-|
D|-66--66666-66-66666-88-88888-|44-44444-|                    |-6-|
A|-44--44444-66-66666-88-88888-|44-44444-|                    |-4-|
D|-----------44-44444-66-66666-|22-22222-|                    |---|

Guitar 2:
E|----------|
B|----------|
G|-----3--6-| (x3) then gtr 1 part2, then (x3), then gtr 1 finishes off.
D|----6-----|
A|-44-------|
D|----------|

Holy crap that Guitar 2 part took me a half hour to figure out... and i'm not even sure 
its right =/ if u have a better part post it in the "Comments" please.  Thx for checking 
my tab, i think its right =) cya.