He Is Legend - China White Iii Text Guitar Tab

Learn song with the online tabulature player
ALL but the chords, if you really want them just look up chords and play ones that sound right.


intro 1
D|---------------------------------------------------------------------|
A|-----------------------10-12---------------------7h8r7-----------10~-|
F|------------11~--------------11^---9r7h9r7------7-----7h9r7----------|
C|--s9-12~--s9-----11h12---------------------9~--9------------11h12----|
G|---------------------------------------------------------------------|
C|---------------------------------------------------------------------|

bridge 1
D|--------|  -------------------|  ---------|
A|----7~--|  -----10~-----------|  ---------|
F|---7----|x1----9---------9s7--|x3--3~--7~-|
C|--9-----|  --12------9h12---h9|  --4-~-6~-|
G|--------|  -------------------|  ------7~-|
C|--------|  -------------------|  ---------|

intro 2
D|----------------------------------------------------------|
A|--------------------------10-12-----------10h12-----------|
F|------------11h12r11-----------11-9r7---11-----11-9r7-----|
C|--s9-12~--s9---------11h12------------9---------------9---|
G|----------------------------------------------------------|
C|----------------------------------------------------------|

D|---------------------------14---|
A|12h14-15^-14r12h14r12----12--12-|
F|----------------------14--------|
C|--------------------------------|
G|--------------------------------|
F|--------------------------------|

(bridge 1)

D|-----------|
A|---19r15---|
F|---------16|x55
C|-----------|
G|-----------|
C|-----------|

(heavy reverb)
D|----------------|
A|----------------|
F|----~4----2-----|
C|-------2h4------|
G|--2~--------5-3-|
C|----------------|