He Is We - Kiss It Better Text Guitar Tab

Learn song with the online tabulature player
This is my first tab, but it sounds right
Listen to the song for the progression because it's the same throughout the whole song.
Intro:
E|---3----3-----3-----3-------------------------------------------------|
B|---3----3-----3-----3-------------------------------------------------|
G|--------------2-------------------------------------------------------|
D|--------2-----------2-------------------------------------------------|
A|---2----2-----------3-------------------------------------------------|
E|---3------------------------------------------------------------------|

Verse: (Same Progression as intro but you single strum it) x2
E|---3----3-----3-----3-------------------------------------------------|
B|---3----3-----3-----3-------------------------------------------------|
G|--------------2-------------------------------------------------------|
D|--------2-----------2-------------------------------------------------|
A|---2----2-----------3-------------------------------------------------|
E|---3------------------------------------------------------------------|

Chorus: (Strum like beginning sounds like it's just d,d,d.. ect.)x2
E|---3----3-----3-----3-------------------------------------------------|
B|---3----3-----3-----3-------------------------------------------------|
G|--------------2-------------------------------------------------------|
D|--------2-----------2-------------------------------------------------|
A|---2----2-----------3-------------------------------------------------|
E|---3------------------------------------------------------------------|

Instrumental Break: Same as the intro
E|---3----3-----3-----3-------------------------------------------------|
B|---3----3-----3-----3-------------------------------------------------|
G|--------------2-------------------------------------------------------|
D|--------2-----------2-------------------------------------------------|
A|---2----2-----------3-------------------------------------------------|
E|---3------------------------------------------------------------------|

Verse: (d.d.d strum) x2
E|---3----3-----3-----3-------------------------------------------------|
B|---3----3-----3-----3-------------------------------------------------|
G|--------------2-------------------------------------------------------|
D|--------2-----------2-------------------------------------------------|
A|---2----2-----------3-------------------------------------------------|
E|---3------------------------------------------------------------------|

Chorus: (Strum like beginning sounds like it's just d,d,d.. ect.)x2
E|---3----3-----3-----3-------------------------------------------------|
B|---3----3-----3-----3-------------------------------------------------|
G|--------------2-------------------------------------------------------|
D|--------2-----------2-------------------------------------------------|
A|---2----2-----------3-------------------------------------------------|
E|---3------------------------------------------------------------------|

Bridge Part 1- (Now he sits behind prison bars) single Strumming x2
E|---3----3-----3-----3-------------------------------------------------|
B|---3----3-----3-----3-------------------------------------------------|
G|--------------2-------------------------------------------------------|
D|--------2-----------2-------------------------------------------------|
A|---2----2-----------3-------------------------------------------------|
E|---3------------------------------------------------------------------|

Bridge Part 2- Strumming is the only difference Strumming would count like 1+2 3 e+4 (d, 
d, d, d, u, d ,u d)
Then in middle strum down faster, final strum on the last chord when bridge is over (x2)
E|---3----3-----3-----3-------------------------------------------------|
B|---3----3-----3-----3-------------------------------------------------|
G|--------------2-------------------------------------------------------|
D|--------2-----------2-------------------------------------------------|
A|---2----2-----------3-------------------------------------------------|
E|---3------------------------------------------------------------------|

Chorus, You don't have to play but you can if you're performing. x2
E|---3----3-----3-----3---------------------------------------------------|
B|---3----3-----3-----3---------------------------------------------------|
G|--------------2---------------------------------------------------------|
D|--------2-----------2---------------------------------------------------|
A|---2----2-----------3---------------------------------------------------|
E|---3--------------------------------------------------------------------|

Outro/ending: (Kiss it all better part) x2
E|---3----3-----3-----3-------------------------------------------------|
B|---3----3-----3-----3-------------------------------------------------|
G|--------------2-------------------------------------------------------|
D|--------2-----------2-------------------------------------------------|
A|---2----2-----------3-------------------------------------------------|
E|---3------------------------------------------------------------------|

Thank you for viewing my tab!
~Alyssa