He Is We - Prove You Wrong Text Guitar Tab

Learn song with the online tabulature player
PROVE YOU WRONG
by: HE IS WE


CAPO 3rd FRET


INTRO:
---------3------7--5-----3-----7--5-----7-5------|
-----3-------------------------------------------|
-------------------------------------------------|
-------------------------------------------------|
--2---------3---------3---------------------2----|
----------------------------3--------2-----------|

---------3------7--5-----3-----7--5------5-7-5-3-|
-----3-------------------------------------------|
-------------------------------------------------|
-------------------------------------------------|
--3---------2---------2--------------------------|
----------------------------3--------2-----------|