Head Automatica - Graduation Day Text Guitar Tab

Learn song with the online tabulature player
Intro
g -----------------|
d 555~-------------|   X2
a ----555~-000~----|
e -----------------|

Verse
g ------------------------------------------|
d ------------------------------------------|   X2
a 1010101010101010-55555555-3333333333333333
e ------------------------------------------
Verse Bridge
g------------------------|
d -----------------------|
a 10-1010-7-55-3-33-2-33-|
e -----------------------|

Verse

Pre-Chorus
g ---------------------------------------------------------|
d ---------------------------------------99999999-12121212-|
a 12121212121212121212121212121212141210-------------------|
e ---------------------------------------------------------|

Chorus #1
g -----------------------------|
d 5-55-5-----------------------|   X2
a ------5-55-5-0-00-00-00-0----|
e -----------------------------|

Verse

Verse Bridge

Pre-chorus

Chorus #1

Chorus #2
g ------------------------------------|
d 55555555----------------------------|  X2
a --------55555555-0000000000000000---|
e ------------------------------------|

Bridge
g ---------------------------------      g --------------|
d ---------------------------------   X4 d --------------|
a 5555555555555555-7777777777777777      a 12\----12\----|0/12121212
e ---------------------------------      e --------------|

Chorus #2

Outro
g -------------------------------------|
d 55555555-----------------------------|   X2
a --------55555555-0000000000000000----|
e -------------------------------------|

Last time play
g -------------------------------------------|
d 55555-0-5-7------------7777777777777-5-7-9-|
a -----------5555-7-0-5-7--------------------|
e -------------------------------------------|

g ---------------------------------|
d 55555-0-5-7----------------------|
a -----------5-5-5-5-5-0~~~~~~~~~~-|
e ---------------------------------|