Headstones - Unsound Text Guitar Tab

Learn the song with the online tablature player
Unsound-Headstones

This song rocks and I love when a great canadian band has an awesome
song.

I don't play bass but I got my guitar teacher to show me the bassline
and the guitar comes right off that.

This is from memory (I don't have the CD with me)

Intro
Bass
 A       G          D       A
|--6-6-6|---4*4--4-|--7-7-7|---2p0h2--|
|-----7-|--5----5--|-----7-|--2-------|
|-------|----------|5------|0---------|
|5------|3---------|-------|----------|

 A       G          D       A
|--6-6-6|---4*4--4-|--7-7-7|---2*2----|
|-----7-|--5----5--|-----7-|--2-------|
|-------|----------|5------|0---------|
|5------|3---------|-------|----------|

If this seems too complicated, it really isn't.
It's made from these four chords:
A
G
D5
A5

The guitar part is simple.
All it is is the same four chords:
A
G
D5
A5

Neil Fitzpatrick

If anyone knows Untitled by Collective Soul please mail me or at least
post it.