Hedley - Dont Talk To Strangers Text Guitar Tab

Learn song with the online tabulature player
Song: Don't Talk To Strangers
Artist: Hedley
Album: The Show Must Go

When you do this part and you don't have the pedal for it just slightly pull of your 
from the fretboard each time you pluck the string. And the strumming pattern is easy thats 
I didn't bother putting it in the tab.

INTRO
|-------| |-------| |-------| |-------| |-------|
|-------| |-------| |-------| |-------| |-------|
|-------| |-------| |-------| |-------| |-------|
|---5---| |---8---| |---10--| |---8---| |---10--|
|-------| |-------| |-------| |-------| |-------|
|-------| |-------| |-------| |-------| |-------|

CHORUS
|-------| |-------| |-------| |-------|
|-------| |-------| |-------| |-------|
|-------| |-------| |-------| |---5---|
|---5---| |---8---| |---3---| |---5---|
|---5---| |---8---| |---3---| |---3---|
|---3---| |---6---| |---1---| |-------|

Well thats pretty much it for this song. It is very easy. Please rate and/or comment and 
will fix any mistakes just e-mail me.


ccc_crowkid@hotmail.com