Hello Kelly - Perfect Place Text Guitar Tab

Learn song with the online tabulature player
----------------------------------------------------------------------------
                             SONG NAME - Band Name
----------------------------------------------------------------------------
Tabbed by:
Email:

Tuning:DADGCC

Intro
C|-----------------------------------------|
C|-----------------------------------------|
G|-----------------------------------------|
D|-5-5-555553-3-33333/7-7-77777/5-5-55555--|
A|----------3-3-33333/7-7-77777/5-5-55555--|
D|----------3-3-33333/7-7-77777/5-5-55555--|

Verse 1
C|-----------------------------------------|
C|-----------------------------------------|
G|-----------------------------------------|
D|-5-5-555553-3-33333/7-7-77777/5-5-55555--|
A|----------3-3-33333/7-7-77777/5-5-55555--|
D|----------3-3-33333/7-7-77777/5-5-55555--|

Verse 2
C|-----------------------------------------|
C|-----------------------------------------|
G|-----------------------------------------|
D|-5-5-555553-3-33333/7-7-77777/5-5-55555--|
A|----------3-3-33333/7-7-77777/5-5-55555--|
D|----------3-3-33333/7-7-77777/5-5-55555--|

Chorus
C|-------------------------------|
C|-------------------------------|
G|-------------------------------|
D|3-3-33333/7-7-77777/5-5-55555--|
A|3-3-33333/7-7-77777/5-5-55555--|
D|3-3-33333/7-7-77777/5-5-55555--|

Bridge
C|-----------------------------------------|
C|-----------------------------------------|
G|-----------------------------------------|
D|-5-5-555553-3-33333/7-7-77777/5-5-55555--|
A|----------3-3-33333/7-7-77777/5-5-55555--|
D|----------3-3-33333/7-7-77777/5-5-55555--|
p.m. . ...... . ....... . ....... . .....

Chorus
C|-------------------------------|
C|-------------------------------|
G|-------------------------------|
D|3-3-33333/7-7-77777/5-5-55555--|
A|3-3-33333/7-7-77777/5-5-55555--|
D|3-3-33333/7-7-77777/5-5-55555--|

Verse 3
C|-----------------------------------------|
C|-----------------------------------------|
G|-----------------------------------------|
D|-5-5-555553-3-33333/7-7-77777/5-5-55555--|
A|----------3-3-33333/7-7-77777/5-5-55555--|
D|----------3-3-33333/7-7-77777/5-5-55555--|