Hellogoodbye - Baby Its Fact Text Guitar Tab

Learn song with the online tabulature player
|12---------------------------12---------------------------------------|
|---13-12-9-10--10-12-13-15-----13-12-10-----------12------------------|
|-----------------------------------------13--13-15----10--10-12-13-10-|
|----------------------------------------------------------------------|

|--------------12-----------------------------------------------------------|
|10--12-13-15-----13-12-10--------------------------------------------------|
|---------------------------13-13-12-12-10-10-8-8------------8--10-8--------|
|-------------------------------------------------8--8-10-11---------10-8-6-|

|-------------------------------------------------------|
|-------------------------------------------------------|
|------------------3--3-5-6-8--10-8------12-13-12-13-10-|
|6-8-10-3--3-5-6-3------------------10-8----------------|

|----------------------------|
|----------------------------|
|----------------------------|
|-13-13-11-10-8--8-10-11-13~-|

|----17-17----17-17----17-17----17-17----17-17----17-17----17-17----|
|15-------17-------18-------17-------15-------17-------18-------17--|
|-------------------------------------------------------------------|
|-------------------------------------------------------------------|

|-----------------------------------------------------|
|-----------------------------------------------------|
|10~-10h12~-12h13~-13p12~-12p10~-10h12~-12h13~-13h15~-|
|-----------------------------------------------------|

|12---------------------------12---------------------------------------|
|---13-12-9-10--10-12-13-15-----13-12-10-----------12------------------|
|-----------------------------------------13--13-15----10--10-12-13-10-|
|----------------------------------------------------------------------|

|--------------12-----------------------------------------------------------|
|10--12-13-15-----13-12-10--------------------------------------------------|
|---------------------------13-13-12-12-10-10-8-8------------8--10-8--------|
|-------------------------------------------------8--8-10-11---------10-8-6-|

|-------------------------------------------------------|
|-------------------------------------------------------|
|------------------3--3-5-6-8--10-8------12-13-12-13-10-|
|6-8-10-3--3-5-6-3------------------10-8----------------|

|----------------------------|
|----------------------------|
|----------------------------|
|-13-13-11-10-8--8-10-11-13~-|

|----17-17----17-17----17-17----17-17----17-17----17-17----17-17----|
|15-------17-------18-------17-------15-------17-------18-------17--|
|-------------------------------------------------------------------|
|-------------------------------------------------------------------|

|12-------------|
|---13-12-9-10/-|
|---------------|
|---------------|

|----------------------|
|----------------------|
|13-13-12-12-10-10-8-8-|
|----------------------|

|---------------------------------------------------------------|
|---------------------------------------------------------------|
|------------8--10-8---------------------------3--3-5-6-8--10-8-|
|-8--8-10-11---------10-8-6--6-8-10-3--3-5-6-3------------------|

|-----------------------------------------------------------------------|
|-----------------------------------------------------------------------|
|---------------------------3-5-6-8--10-8-------12-13-12-13-10----------|
|10-8-6--6-8-10-3--3-5-6-3----------------10-8-----------------13-11-10-|

|-------------------------------------------------------------------|
|-------------------------------------------------------------------|
|-----------8--10-8---------------------------3--3-5-6-8--10-8------|
|8--8-10-11---------10-8-6--6-8-10-3--3-5-6-3------------------10-8-|

|-------------------------------------------------------------------|
|-------------------------------------------------------------------|
|-----------8--10-8---------------------------3--3-5-6-8--10-8------|
|8--8-10-11---------10-8-6--6-8-10-3--3-5-6-3------------------10-8-|

|-------------------------------------|
|-------------------------------------|
|13-13-12-12-10-10-8-8----------------|
|----------------------8--8-10-11-13~-|